Maps And Atlases - Witch tab

-------------------------------------------------------------------------------
			     Witch - Maps & Atlases
-------------------------------------------------------------------------------
This isn't completely finished, I'll get back to it when I can

Tuning: Standard

ee------------------------|
B-------------------------|
G-------------------------|
D-------------------7--6--|
A-7--9--------7--9--------|
E-------------------------|


this part is not exactly right but you should get the idea
e-------------------------------------------------------------------|
B-------------------------------------------------------------------|
G-13-13-13-13-------------------------------------------------------|
D-------------11-11-11-11-11-11-14-14-14-14-14-14-------------------|
A-------------------------------------------------12-12-12-12-12-11-|
E-------------------------------------------------------------------|

e|-----------------------------|
B|-----------------------------|
G|-----------------------------|
D|-----------------------------|
A|--12\\\7/9-------12\\\7/9-9--|
E|--12\\\7/9-------12\\\7/9-9--|

e|-------------------------------------------------------12-12-12----------|
B|-------------------------------------12-12-12-14-14-14----------14-14-14-|
G|-------------------11-11-11-14-14-14-------------------------------------|
D|-11-11-11-14-14-14-------------------------------------------------------|
A|-------------------------------------------------------------------------|
E|-------------------------------------------------------------------------|

e|-------------------------------|
B|-------------------------------|
G|-------------------------------|
D|-14-11-14-11-14-11-14-11-------|
A|-------------------------12----|
E|----------------------------12-|


| /  slide up
| \  slide down
| h  hammer-on
| p  pull-off
| ~  vibrato
| +  harmonic
| x  Mute note
Tap to rate this tab
 
# A B C D E F G H I J K L M N O P Q R S T U V W X Y Z