Song name
# A B C D E F G H I J K L M N O P Q R S T U V W X Y Z

Maps And Atlases - Was tab

MAPS AND ATLASES - WAS


e-------0---------0-------0-----2/4--4p2p0---4-----7---|
B---0-------2---------2----------------------4-----7---|
G---1-------0---------2----------------------4-----8---|
D---2-------2---------2----------------------6-----9---|
A---2-------1---------0----------------------6-----9---|
E---0-------0--------------------------------4-----7---|

e---8----|
B---8----|
G---8----|
D---10---|
A---10---|
E---8----|

e------------------------------2---|
B---5--------------------------2---|
G---6---6-4--------------------3---|
D---6-------6-4-6---6--6/4-----4---|
A---4--------------------------4---|
E------------------------------2---|

e----------0---------5------------0---------5/---|
B---2----------2/5---------2----------2/5--------|
G---2----------------------2---------------------|
D---2----------------------2---------------------|
A---0----------------------0---------------------|
E------------------------------------------------|
Tap to rate this tab
# A B C D E F G H I J K L M N O P Q R S T U V W X Y Z