Song name
# A B C D E F G H I J K L M N O P Q R S T U V W X Y Z

Marilyn Manson - Working Class Hero tab

marilyn manson, working class hero.
Tabbed by mark lang       BILLCHANG222@prodigy.net.
  
   this is a really easy song     but this is my first time tabbing    so bare with me  

      the entire verse goes:

 e-------------------      Am chord
 B--1----------------
 G-----2-------------
 D-----2------------- 


 e--------3----------      G chord
 B-------------------
 G-------------------
 D-------------------
 A------2------------
 E------------3------ 


 i suggest listening to the song to figure out this part 

     its the same progresion but add this at the end   

 e-----2---------   D chord     or D7 witch is that 
 B---------3-----   exept the 3 on B goes to 1 on B
 G-----2---------   (that was for the illiterate 
                     geetar players.

      Like i said    download the song or listen to it    its really easy to get the strumin patern
 
:: Ultimate Guitar Archive :: 
http://www.ultimate-guitar.com 

Tap to rate this tab
# A B C D E F G H I J K L M N O P Q R S T U V W X Y Z