Song name
# A B C D E F G H I J K L M N O P Q R S T U V W X Y Z

Marilyn Manson - Long Hard Road Out Of Hell tab

Marilyn Manson
Long Hard Road Out Of Hell
Spawn Soundtrack


Intro
e--------------------------------------     
B--------------------------------------
G--0-------------------0---------------    play X2
D-----8------------8\3-----------------
A--7------------7----------------------
E--------------------------------------


Chorus

e--------------------------------------------------------------------
B--------------------------------------------------------------------
G--------------------------------------------------------------------
D--2-2-2-2-2-2-2-2-5-5-5-5-5-5-5-5-3-3-3-3-3-3-3-3-2-2-2-2-2-2-2-2---
A--2-2-2-2-2-2-2-2-5-5-5-5-5-5-5-5-3-3-3-3-3-3-3-3-2-2-2-2-2-2-2-2---
E--0-0-0-0-0-0-0-0-3-3-3-3-3-3-3-3-1-1-1-1-1-1-1-1-0-0-0-0-0-0-0-0---

Outro

e------------------------------------------------------------------
B------------------------------------------------------------------
G------------------------------------------------------------------
D---2---5---2---9-------8---8-8-8-8-2---5---2---9-------2---5---2--
A---2---5---2---9-------8---8-8-8-8-2---5---2---9-------2---5---2--
E---0---3---0---7-------6---6-6-6-6-0---3---0---7-------0---3---0--
Tap to rate this tab
# A B C D E F G H I J K L M N O P Q R S T U V W X Y Z