Song name
# A B C D E F G H I J K L M N O P Q R S T U V W X Y Z

Marilyn Manson - The Nobodies Acoustic tab

this is the acoustic version of the nobodies hope you like it

/=slide up


e-----------------------------------------|
b--1-1-1-1-1-1-1-1--1---1---1-1-1-1-------|
g---2---2---2---2----2---2---2---2--------|
d---------------------2---2---------------|  verse x3
a-0---0---3---3------------0--------------|
e-----------------0---0-------3-----------|

e-----------------------------------------|
b-----------------------------------------|
g----------55555555-----------------------|
d-77777777-55555555-22222222-7777-5555----|   chorus x2
a-77777777-33333333-22222222-7777-5555----|
e-55555555----------00000000-5555-3333----|


e-----------------------------------------|
b--1-1-1-1-1-1-1-1--1---1---1-1-1-1-------|
g---2---2---2---2----2---2---2---2--------|
d---------------------2---2---------------|  verse x2
a-0---0---3---3------------0--------------|
e-----------------0---0-------3-----------|

e-----------------------------------------|
b-----------------------------------------|
g----------55555555-----------------------|
d-77777777-55555555-22222222-7777-5555----|   chorus x2
a-77777777-33333333-22222222-7777-5555----|
e-55555555----------00000000-5555-3333----|

e---------------------------------------------------------------------------|
b---------------------------------------------------------------------------|
g---------------------------------------------------------------------------|
d-77777777-33333333-77777777-33333333-77777777-33333333-77777777-33333333-2-|
a-77777777-33333333-77777777-33333333-77777777-33333333-77777777-33333333-2-|
e-55555555-11111111-55555555-11111111-55555555-11111111-55555555-33333333-0-|
                        ^^bit after chorus^^
e--------------|
b--------------|
g--------------|
d--------------|
a-3/7-5-3-0----|    little solo filler thing
e--------------|


e-----------------------------------------|
b--1-1-1-1-1-1-1-1--1---1---1-1-1-1-------|
g---2---2---2---2----2---2---2---2--------|
d---------------------2---2---------------|  verse x3
a-----0---3---3------------0--------------|
e-----------------0---0-------3-----------|

e------------------------------------------------------------------|
b---1-1-1-1-1-1-1-1------------------------------------------------|
g----2---2---2---2-----------------------------55555555------------|
d------------------22222222-7777-5555-77777777-55555555------------|
a-0----0---3---3---22222222-7777-5555-77777777-33333333-22222222---|
e------------------00000000-5555-3333-55555555----------00000000---|

e-----------------------------------------------------------------------|
b-----------------------------------------------------------------------|
g-----------------------------------------------------------------------|
d-7777-5555-7777-7777-7777----------------------------------------------|
a-7777-5555-7777-7777-7777----------------------------------------------|
e-5555-3333-5555-5555-5555----------------------------------------------|


             the end hope you like my tab rate it please
Tap to rate this tab
# A B C D E F G H I J K L M N O P Q R S T U V W X Y Z