Song name
# A B C D E F G H I J K L M N O P Q R S T U V W X Y Z

Marilyn Manson - The Nobodies tab

This is not the acoustic version.

E|------------------------------------------------------------------|
B|---1---1---1---1---1---1---1---1---1-------1--------1---1---1---1-|
G|-2---2---2---2---2---2---2---2-------1-------1----2---2---2---2---|
D|---------------------------------2-----2-2-----2------------------|
A|------------------------------------------------------------------|



Main Chords :


G|------*5------------------------|

D|-*7---*5---*2---7-7-7-7-5-5-5-5-|

A|-*7---*3---*2---7-7-7-7-5-5-5-5-|

E|-*5--------*0---5-5-5-5-3-3-3-3-|



Bridge : ("Some children died the other day..")


G|---------------------------|

D|-*7-*3-*7-*3-*7-*3-*7-*3-2-|

A|-*7-*3-*7-*3-*7-*3-*7-*3-2-|  *Play each chord(note) 8 times

E|-*5-*1-*5-*1-*5-*1-*5-*1-0-|



End with a wah-type effect on :



E|-5-|

B|---|
Tap to rate this tab
# A B C D E F G H I J K L M N O P Q R S T U V W X Y Z