Song name
# A B C D E F G H I J K L M N O P Q R S T U V W X Y Z

Marilyn Manson - Disposable Teens tab

  this is what i have down so far correct me if im wrong

  \= slide to higer notes
  /= slide to lower notes
  b= bend ( duh ) lol
  x= muffled notes

  ---12/slide-----------------------------------------|
  ----------------------------------------------------|
  ----------------------------------------------------|  times 2
  ----------------------------------------------------|
  --------------------0--(b4)---------0---------------|
  ---------------7-7---------7-7-7-7-----7------------|

  -------------------------------------------------------------------|
  -------------------------------------------------------------------|
  ---------------------------------------------------------- times 2-|
  -------------------------------------------------------------------|
  -------------------------------------------------------------------|
  -0-0-x-x-x-x-0-0-x-x-x-x-x-x-x-0-0-x-x-x-x-0-0-x-x-3-2-3-2---------|


  ----------------------------------------------------|
  ----------------------------------------------------|
  ----------------------------------------------------|  times 4
  ----------------------------------------------------|
  --------------------0--(b4)---------0---------------|
  ---------------7-7---------7-7-7-7-----7------------|


  -------------------------------------------------------------------|
  -------------------------------------------------------------------|
  ---------------------------------------------------------- times 2-|
  -------------------------------------------------------------------|
  -------------------------------------------------------------------|
  -0-0-x-x-x-x-0-0-x-x-x-x-x-x-x-0-0-x-x-x-x-0-0-x-x-3-2-3-2---------|

  ----------------------------------------------------------|
  ----------------------------------------------------------|
  ----------------------------------------------------------|
  ----------------------------------------------------------|
  ----------------------------------------------------------|
  -0-0-0-0-0-0-0-0-0-0-0-0-0-0-0---0-0-0-0-0-0-0-0-0-0-1\12-|


   you know the rest comment or  messAGE me for anything abouth this passage
Tap to rate this tab
# A B C D E F G H I J K L M N O P Q R S T U V W X Y Z