Song name
# A B C D E F G H I J K L M N O P Q R S T U V W X Y Z

Marilyn Manson - The Gardener tab

The Gardener with bassline
Drop D [DADBGe]

Any problems?
avenged_sevenfold-10@live.ca


Bassline: 
|-------------------|--------------------|
|-------------------|--------------------|
|------5------------|------5---3-h5-p3---|
|-0-0----0-0-3-5-6--|--0-0---0---------0-|

"Im not man enough.."
|---------------------------------|
|---------------------------------|
|---------------------------------|
|-3-3-3-3-5-5-5-5-7-7-7-7-5-5-5-5-|
|-3-3-3-3-5-5-5-5-5-5-5-5-3-3-3-3-|
|-3-3-3-3-5-5-5-5-----------------|

|---------------------------------|
|---------------------------------|
|---------------------------------|
|-3-3-3-3-5-5-5-5-7-7-7-7-7-7-7-7-|
|-3-3-3-3-5-5-5-5-5-5-5-5-5-5-5-5-|
|-3-3-3-3-5-5-5-5-0-0-0-0-0-0-0-0-|
                  . . . . . . . . 
Bassline: 
|-------------------|
|-------------------|
|------5------------|
|-0-0----0-0-3-5-6--|

|-------------------|
|-------------------|
|-------------------|
|-5b--3b------------|
|----------5b-3b/5--|
|-------------------|

"Im not man enough.."
|---------------------------------|
|---------------------------------|
|---------------------------------|
|-3-3-3-3-5-5-5-5-7-7-7-7-5-5-5-5-|
|-3-3-3-3-5-5-5-5-5-5-5-5-3-3-3-3-|
|-3-3-3-3-5-5-5-5-----------------|

|---------------------------------|
|---------------------------------|
|---------------------------------|
|-3-3-3-3-5-5-5-5-7-7-7-7-7-7-7-7-|
|-3-3-3-3-5-5-5-5-5-5-5-5-5-5-5-5-|
|-3-3-3-3-5-5-5-5-0-0-0-0-0-0-0-0-|
                  . . . . . . . . 

"You won't share your concept of creation"
|--------------------|
|--------------------|
|--------------------|
|--------------------|
|----3----2----3-2-0-|
|-3----2----0--------|

"Im not man enough.."
|---------------------------------|
|---------------------------------|
|---------------------------------|
|-3-3-3-3-5-5-5-5-7-7-7-7-5-5-5-5-|
|-3-3-3-3-5-5-5-5-5-5-5-5-3-3-3-3-|
|-3-3-3-3-5-5-5-5-----------------|

|---------------------------------|
|---------------------------------|
|---------------------------------|
|-3-3-3-3-5-5-5-5-7-7-7-7-7-7-7-7-|
|-3-3-3-3-5-5-5-5-5-5-5-5-5-5-5-5-|
|-3-3-3-3-5-5-5-5-0-0-0-0-0-0-0-0-|
                  . . . . . . . . 
Tap to rate this tab
# A B C D E F G H I J K L M N O P Q R S T U V W X Y Z