Song name
# A B C D E F G H I J K L M N O P Q R S T U V W X Y Z

Marilyn Manson - The Gardener tab

-------------------------------------------------------------------------------
                             THE GARDENER - Marilyn Manson
-------------------------------------------------------------------------------
Tabbed by: Tyler
Email: hill.tyler63@yahoo.com

Tuning: Drop D

Someone already tabbed this song, but I felt their tab had a few notable errors. This is 
how I play it and I think it's a bit more accurate.

Bass Riff
e|---------------------------------------------------------------------------|
B|---------------------------------------------------------------------------|
G|---------------------------------------------------------------------------|
D|---------------------------------------------------------------------------|
A|-----5p3---------x3-then-----5p3---5---------------------------------------|
E|-0-0-----3-3-5p0---------0-0-----3---5p3-----------------------------------|

"She and every she..."
e|-2-x16---------------------------------------------------------------------|
B|-------3-x13---------------------------------------------------------------|
G|-------------2-x3----------------------------------------------------------|
D|---------------------------------------------------------------------------|
A|---------------------------------------------------------------------------|
E|---------------------------------------------------------------------------|

Choruses
e|----------------------------------------------------------------------------|
B|----------------------------------------------------------------------------|
G|-------5-7-7-7-5---5---------5-7-7-7----------------------------------------|
D|-3-3-0-5-7-7-7-5---5-0-3-3-0-5-7-7-7-0-0-0-0--------------------------------|
A|-3-3-0-3-5-5-5-3---3-0-3-3-0-3-5-5-5-0-0-0-0--------------------------------|
E|-3-3-0---------------0-3-3-0---------0-0-0-0--------------------------------|
                                       . . . .
(note: the number of times you strum each chord doesn't have to be exactly like I have 
it tabbed. It's the sort of riff that kind of has to be felt.)

Guitar riff after 1st Chorus
e|---------------------------------------------------------------------------|
B|-11b--------------11b------------------------------------------------------|
G|-----10b--------------10b--------------------------------------------------|
D|---------11b--------------11b----------------------------------------------|
A|------------------------------10b------------------------------------------|
E|---------------------------------------------------------------------------|
(note: all notes are half bends (up a semitone) not full bends. Some of them have a 
slightly different feel than the others that I don't know how to tab. For example 10 on the 
A string has a slower bend to it than the others.)

"You never wanted to share..."
e|---------------------------------------------------------------------------|
B|---------------------------------------------------------------------------|
G|---------------------------------------------------------------------------|
D|----5-------5-------5----5--------5---------5-------5-----5----------------|
A|---------------------------------------3-----------------------------------|
E|-3------2-------0-------------3-----------------0--------------------------|

"Your book isn't burned..." Guitar 1
e|---------------------------------------------------------------------------|
B|---------------------------------------------------------------------------|
G|---------------------------------------------------------------------------|
D|---------------------------------------------------------------------------|
A|---------------------------------------------------------------------------|
E|-3------2-------0--------------3--------5--------0-------------------------|

"Your book isn't burned..." Guitar 2 (it's really quiet)
e|---------------------------------------------------------------------------|
B|-3-3-6-6-5-5-6-6-----------------------------------------------------------|
G|---------------------------------------------------------------------------|
D|---------------------------------------------------------------------------|
A|---------------------------------------------------------------------------|
E|---------------------------------------------------------------------------|
   . . . . . . . .


************************************

| /   slide up
| \   slide down
| h   hammer-on
| p   pull-off
| ~   vibrato
| +   harmonic
| x   Mute note
| b   Bend
| pb  Pre-bend
| br  Bend release
| pbr Pre-bend release
| brb Bend release bend

************************************
Tap to rate this tab
# A B C D E F G H I J K L M N O P Q R S T U V W X Y Z