Song name
# A B C D E F G H I J K L M N O P Q R S T U V W X Y Z

Marilyn Manson - Born Villain tab

----------------------------------------------------------------------------
                          Marilyn Manson - Born Villain
----------------------------------------------------------------------------

Tabbed by: Metalrock4ever

Tuning: CGCFAD

Intro:
D|----------------------|
A|----------------------|
F|----------------------|
C|-----4-5~-----4-5~/7~-|  x4
G|---2--------2---------|
C|-2--------2-----------|

Verse:
D|----------------------|
A|----------------------|
F|----------------------|
C|-----4-5~-----4-5~/7~-|  x6  (play with distortion last few times)
G|---2--------2---------|
C|-2--------2-----------|

Chorus:
D|-----------------------------------|
A|-----------------------------------|
F|-----------------------------------|
C|-----------------------------------|
G|-7-7\5\2--2-5-7--7-7\5\2-0/2-5-7-7-|
C|-----------------------------------|

Verse 2:
D|----------|
A|----------|
F|----------|
C|-----4-5~-|  x4
G|---2------|
C|-2--------|

D|----------------------|
A|----------------------|
F|----------------------|
C|-----4-5~-----4-5~/7~-|  x2
G|---2--------2---------|
C|-2--------2-----------|

Pre-Chorus:
|-------|
|-------|
|-------|
|-5~-2~-| x2
|-5~-2~-|
|-5~-2~-|

Chorus 2:
D|-----------------------------------|
A|-----------------------------------|
F|-----------------------------------|
C|-----------------------------------| x2
G|-7-7\5\2--2-5-7--7-7\5\2-0/2-5-7-7-|
C|-----------------------------------|

Pre-Verse:
(Keep playing this until the next verse, quietly)
D|----------------|
A|----------------|
F|----------------|
C|-22222222222222-|
G|----------------|
C|----------------|

Verse 3:
(Don't play until he sings "Click, click..."
D|----------------------|
A|----------------------|
F|----------------------|
C|-----4-5~-----4-5~/7~-|  x4
G|---2--------2---------|
C|-2--------2-----------|

Pre-Chorus:
|-------|
|-------|
|-------|
|-5~-2~-| x2
|-5~-2~-|
|-5~-2~-|

Chorus 3:
D|-----------------------------------|
A|-----------------------------------|
F|-----------------------------------|
C|-----------------------------------|  x2
G|-7-7\5\2--2-5-7--7-7\5\2-0/2-5-7-7-|
C|-----------------------------------|

Play this when most of the band stops:
D|-------|
A|-------|
F|-------|
C|-------|
G|-------|
C|-2~-0~-|

Bridge:
D|----------------|
A|----------------|
F|----------------|
C|----------------|  x2
G|-5~-5-5/7-7-10~-| 
C|----------------|

D|---------------------|
A|---------------------|
F|---------------------|
C|-9999-9999-9999-7777-|  x10  (Play till the end of the song)
G|-9999-9999-9999-7777-|
C|-7777-7777-7777-5555-|


************************************

| /   slide up
| \   slide down
| ~   vibrato

************************************

I don't know whether I got all the repeats right, but it can be picked up when you listen to it. 
If you have any comments/corrections, please say in the comment box or on my profile page. Enjoy!
Tap to rate this tab
# A B C D E F G H I J K L M N O P Q R S T U V W X Y Z