Song name
# A B C D E F G H I J K L M N O P Q R S T U V W X Y Z

Mark Curry - Its Only Time tab

It's Only Time
by Mark Curry
Album: It's Only Time

Figure 1:

   G               F#              E                 F#
e --------------------------------------------------------------------|
B -----3-----3---------3-----3---------3-----3-----3-----3-----3------|
G ---0-----0-----0---0-----0-----0---0-----0-----0-----0-----0-----0--|
D --------------------------------------------------------------------|
A --------------------------------------------------------------------|
E -3-----3-----3---2-----2-----2---0-----0-----0-----2-----2-----2----|

   C               D
e ----------------------------------|
B -----3-----3---------5-----5------|
G ---0-----0-----0---0-----0-----0--|
D ----------------------------------|
A -3-----3-----3---5-----5-----5----|
E ----------------------------------|

Figure 2:

   C               D
e --------------------------------------------------------------------|
B -----3-----3-------5-----5-----5-----5-----5---------3-----3-----3--|
G ---0-----0-----0-----0-----0-----0-----0-----0-----0-----0-----0----|
D -------------------------------------------------0-----0-----0------|
A -3-----3-----3---5-----5-----5-----5-----5-----5--------------------|
E --------------------------------------------------------------------|

Figure 3:

   G             C             E             A
e ----------------------------------------------------------------------|
B -----3---1---0-----0---1---0-----3---1---0-----0---1---0--------------|
G ---0---0---0-----0---0---0-----0---0---0-----0---0---0----------------|
D ----------------------------------------------------------------------|
A ---------------3---------------------------0--------------------------|
E -3---------------------------0----------------------------------------|

e -------------------------------------|
B -----0---0---0-----------------------|
G ---0---0---0-----4-----0-----2-------|
D -------------------0-0---0-0---0-0---|
A -0-----------------------------------|
E -------------------------------------|

Figure 4 (Cello outro):

e -----------------------------------------------------------|
B -3---------------------3-5-3------------3------------------|
G ---0h2h4-5-4-2-4~--4-5-------5-4~---4-5---5-4-2-4-5-4-2-4--|
D -----------------------------------------------------------|
A -----------------------------------------------------------|
E -----------------------------------------------------------|

e --------------------------------------2-3-5/7~-------------|
B -----3----------------------------3-5----------------------|
G -4-5---5-4-2----------------2-4-5--------------------------|
D -------------5-4-2-4-5~---5--------------------------------|
A -----------------------------------------------------------|
E -----------------------------------------------------------|

e -8~---7~---8~---3~---2~------------------------------------|
B --------------------------5----5/7----8~-------------------|
G -----------------------------------------------------------|
D -----------------------------------------------------------|
A -----------------------------------------------------------|
E -----------------------------------------------------------|

[FIGURE 1]
will they remember me
when I have gone
will there be memories
will they hold on

all of the good times we've had
I still can recall
even the times that were bad
I remember it all

[FIGURE 2]
started out so long ago
but haven't raised a line
we're so much older now
still waiting for a sign
I know

[FIGURE 3]
it's only time
ticking... away... away
it's only time
ticking... away... away
it's only time
ticking away

[FIGURE 1]
can you say there's love behind
these coldhearted eyes
even though it's all for me
a clown never cries

[FIGURE 2]
I always thought this world was made
from the love we leave behind
and I will always love this world in my mind
I know

[FIGURE 3]
it's only time
ticking... away... away
it's only time
ticking... away... away
it's only time
ticking away

[FIGURE 4]

Tabbed by gg@jixal.com
Tap to rate this tab
# A B C D E F G H I J K L M N O P Q R S T U V W X Y Z