Song name
# A B C D E F G H I J K L M N O P Q R S T U V W X Y Z

Martin Solveig - Everybody tab

Help us improve GuitareTab! Take a short survey!
Hello guys, I'm french so I ask you to excuse my mistakes =P

Here is a song of a great French DJ, an extract from his nu album Hedonist

Enjoy it !

This tab is not complete, the solo is missing :'(

6:30

0:00 - 1:15
Intro Percusions

1:15
Bass

G -------------|
D -------------|
A -------------| Repeat this part
E -7-5-7-0-(0)-|

1:45
Voice (Verse)

2:14 - 2:44
Chorus

e --------------|
B --------------|
G -------9------|
D --99-x-9-x-9--|
A --99-x-7-x-9--| 4 Times (use the song to find the rythm ! ;) )
E --77-x---x-7--|

Then play this part 6times without stop (sorry, if you dont understand o_O)

2:45 - 3:30
Verse 2 : Drums

3:30 - 3:58
Chorus
The Same

e --------------|
B --------------|
G -------9------|
D --99-x-9-x-9--|
A --99-x-7-x-9--| 4 Times
E --77-x---x-7--|

Like before 6 Times ;)

3:59 - 4:29
Solo
I can't figure it but if somebody could give it to me ;)

4:30 - 4:59
Chorus

e --------------|
B --------------|
G -------9------|
D --99-x-9-x-9--|
A --99-x-7-x-9--| 4 Times
E --77-x---x-7--|

Then 8 Times

5:00 - 5:30
Outro Guitar :  (listen to the song to get the rythm)

e ----------------|
B ----------------|
G ---------9------|
D -9-x-9-x-9-x-9--|
A -9-x-9-x-7-x-9--| 15 times
E -7-x-7-x---x-7--|

5:31 - 6:30
Outro Drums

I need you to complete this tab, contact me ! =P

Questions ? : tefeaaruru@hotmail.com

Official Website : http://www.martinsolveig.com/
Related for Everybody tab