Song name
# A B C D E F G H I J K L M N O P Q R S T U V W X Y Z

Martin Solveig - Hello tab

Martin Solveig - Hello

Intro (part one):
e ----------------------------------------------|
B ----------------------------------------------|
G ---8-8-8-8-8-8-8-8-8-8------------------------| Play twice
D ---8-8-8-8-8-8-8-8-8-8------------------------|
A ---6-6-6-6-6-6-6-6-6-6------------------------|
E ----------------------------------------------|


Intro (part two) and verse

e --------------------------------             --------------------------|
B --------------------------------             --------------------------|
G ---8-8-8-8-8-8-8-8-8-8-3-3-3-3--             --------------------------|
D ---8-8-8-8-8-8-8-8-8-8-3-3-3-3--Several times---6-6-6-6-6-6-6-6-6-6-6--|
A ---6-6-6-6-6-6-6-6-6-6-1-1-1-1--             ---6-6-6-6-6-6-6-6-6-6-6--|
E --------------------------------             ---4-4-4-4-4-4-4-4-4-4-4--|


Just before the matchpoint of BoB S (in the videoclip), it would be nice to play this, 
instead of the verse:

e ----------------------------------------------|
B ----------------------------------------------|
G ----------------------------------------------|
D ----------------------------------------------|
A ----------------------------------------------|
E --11-11-11-11-11-11-11-11-11-11-6-6-6-6-------|

The way this all is played, isn't hard to find out..

Probably you can hear, when you should play what part.

Good luck with it.

Greetings from Holland!
Tap to rate this tab
 
# A B C D E F G H I J K L M N O P Q R S T U V W X Y Z