Song name
# A B C D E F G H I J K L M N O P Q R S T U V W X Y Z

Martin Solveig - Hello tab

Martin Solveig Ft Dragonette
Hello

Standard Tuning

First part Intro
e--------------------------------------------------|
B--------------------------------------------------|
G------8-8-8-8-8---8-8-8-8-8-----------------------|
D------8-8-8-8-8---8-8-8-8-8-----------------------|  two times
A------6-6-6-6-6---6-6-6-6-6-----------------------|
E--------------------------------------------------|

Second part intro + Couplet (the same)
e--------------------------------------------------|
B--------------------------------------------------|
G---8-8-8-8-8-8-8-8-8-8-3-3-3-3--------------------|
D---8-8-8-8-8-8-8-8-8-8-3-3-3-3--------------------| A whole couple off times
A---6-6-6-6-6-6-6-6-6-6-1-1-1-1--------------------|
E--------------------------------------------------|

Part at the end of the couplet:
"Yeah I think you're cute, but really, you should know..."
e---------------------------------------------------|
B---------------------------------------------------|
G---8-8-8-8-8-8-8-8-8-8-3-3-3-3---------------------|
D---8-8-8-8-8-8-8-8-8-8-3-3-3-3---------------------|
A---6-6-6-6-6-6-6-6-6-6-1-1-1-1---------------------|
E---------------------------------------------------|

"I just came to say helloo"
e--------------------------------------------------|
B--------------------------------------------------|
G--------------------------------------------------|
D--6-6-6-6-6-6-6-6-6-6-----------------------------|
A--6-6-6-6-6-6-6-6-6-6-----------------------------|
E--4-4-4-4-4-4-4-4-4-4-----------------------------|


Just before the girl (SHE) comes in the stadium (in the clip)
the first part of the intro is played another time.
e--------------------------------------------------|
B--------------------------------------------------|
G------8-8-8-8-8---8-8-8-8-8-----------------------|
D------8-8-8-8-8---8-8-8-8-8-----------------------|  two times (again)
A------6-6-6-6-6---6-6-6-6-6-----------------------|
E--------------------------------------------------|

After that part, the girl comes in and I think it's nice to only play the E string.
like this:
e--------------------------------------------------|
B--------------------------------------------------|
G--------------------------------------------------|
D--------------------------------------------------| a couple of times
A--------------------------------------------------|
E---11-11-11-11-11-11-11-11-11-11-6-6-6-6----------|


After that Martin Solveig plays the game out (at least till his matchpoint) with the 
same chords as I desriped.

(at the final part, when Gael Monfils enter the stadium, the "E-part" is a bit 
different. It is played like only the 11th fret of the E string)

e--------------------------------------------------|
B--------------------------------------------------|
G--------------------------------------------------|
D--------------------------------------------------|  two times
A--------------------------------------------------|
E----11-11-11-11-11-11-11-11-11-11-11-11-11-11-...-|

So keep on playin' these parts and you're done!

I hope you liked it.
Greets from Holland!
Tap to rate this tab
 
# A B C D E F G H I J K L M N O P Q R S T U V W X Y Z