Song name
# A B C D E F G H I J K L M N O P Q R S T U V W X Y Z

Martyrdom - Premonition tab

This is a tricky song, a lot of number patterns and weird riffs. Still fun as fuck 
to play though. Have fun. SONG PLAYED IN DROP A


(0:00-0:14)
Lead for this riff not yet tabbed out but it will be SOON
2 1 2 3 part played 4 times
|---------------------------------------------|
|---------------------------------------------|
|---------------------------------------------|
|--0-0----0~----0-0----0~----00-0-00-000------|
|--0-0----0~----0-0----0~----00-0-00-000------|
|--0-0----0~----0-0----0~----00-0-00-000------|
   . .          . .          .. . .. ...


(0:15-0:32)
Riff 1
|-------------------------------------------------------9h12p9--12h15p12----|
|-------------------------------------------------------------11--------14--|
|-----------------------76710910-----636767-----96910910--------------------|
|--000--------000-757878---------777--------888-----------------------------|x3
|--000-545878-000----------------777--------888-----------------------------|
|--000--------000----------------777--------888-----------------------------|
   ... ...... ... ......         ...        ... 


(0:33-0:46)
Drilling
|------------------------------------------------------------|
|------------------------------------------------------------|
|------------------------------------------------------------|
|--7-----8-----------7-3------------------12-----------------|x2
|----5-8---8-7---4-7-----4---------7---------8----12-8-------|
|--------------5-----------12-8-12---12-8------12------11----|

(0:47-0:53)
Riff 2
|-------------------------------------|
|-------------------------------------|
|-------------------------------------|
|--7--8-----73----------12------------|x2
|---58-87-47--4-----7-----8--128------|
|--------5-----12812-128---12---11----|
    .. .....   . . . . .      .. .

(0:54-1:06)
Breakdown
|------------------------9h12p9--12h15p12-----------------------------------|
|------------------------------11--------14---------------------------------|
|---------------------------------------------------------------------------|
|--0-0---0-0-0-0-0-0--0-0-------------------0-0--0-0-0-0-0--0-0-0-0-1-1-111-|
|--0-0---0-0-0-0-0-0--0-0-------------------0-0--0-0-0-0-0--0-0-0-0-0-0-000-|
|--0-0---0-0-0-0-0-0--0-0-------------------0-0--0-0-0-0-0--0-0-0-0-1-1-111-|
   . .   . . . . . .  . .                   . .  . . . . .  . . . .     ...

(1:07-1:13)
|------------------------------------------------------------|
|------------------------------------------------------------|
|------------------------------------------------------------|
|-1-1-111-11-1-1-1111-1-1111-1-1111-11-1-1-11-1-11-11-1-111--|
|-0-0-000-00-0-0-0000-0-0000-0-0000-00-0-0-00-0-00-00-0-000--|
|-1-1-111-11-1-1-1111-1-1111-1-1111-11-1-1-11-1-11-11-1-111--|
  . . ... .. . . .... . .... . .... .. . . .. . .. .. . ...

(1:14-1:20)
|---------------------------------------------------|
|---------------------------------------------------|
|---------------------------------------------------|
|--11-1-1-1111-1-1111-1-11111-1-1-11-1-11-11-1-111--|
|--00-0-0-0000-0-0000-0-00000-0-0-00-0-00-00-0-000--|
|--11-1-1-1111-1-1111-1-11111-1-1-11-1-11-11-1-111--|
   .. . . .... . .... . ..... . . .. . .. .. . ...

(1:20-1:22)
|---------------|
|---------------|
|---------------|
|--11-1-1-1111--|
|--00-0-0-0000--|
|--11-1-1-1111--|

(1:23-1:39)
|---------------------------------------------------|
|---------------------------------------------------|
|---------------------------------------------------|
|--00-0-0-0000-0-0000-0-00000-0-0-00-0-00-00-0-000--|x2
|--00-0-0-0000-0-0000-0-00000-0-0-00-0-00-00-0-000--|
|--00-0-0-0000-0-0000-0-00000-0-0-00-0-00-00-0-000--|

(1:40-1:42)
Drilling
|-----------------------------------------|
|-----------------------------------------|
|-----------------------------------------|
|-----------------------------------------|
|-----------------------------------------|
|--6-3-6-2--6-3-6-2--6-3-6-2--6-3-6-2-----|

(1:43-1:46)
Riff 3
|----------------------------|
|----------------------------|
|----------------------------|
|----------------------------|x2
|-------3------------3-------|
|--7-222-22-7-22-6-22-6-2----|
     ... ..   ..   .. . .

(1:47-1:50)
|-------------------------------------------------|
|-------------------------------------------------|
|-------------------------------------------------|
|--66-3-6-2~--66-3-6-2~--66-3-6-2~--66-3-6-2~-----|
|--66-3-6-2~--66-3-6-2~--66-3-6-2~--66-3-6-2~-----|
|--66-3-6-2~--66-3-6-2~--66-3-6-2~--66-3-6-2~-----|
   ..   .     ..   .     ..   .     ..   . 

(1:50-1:54)
Riff 3 again
|----------------------------|
|----------------------------|
|----------------------------|
|----------------------------|x2
|-------3------------3-------|
|--7-222-22-7-22-6-22-6-2----|
     ... ..   ..   .. . .

(1:54-1:58)
Then Riff 3 harmony
|----------------------------|
|----------------------------|
|-------5------------5-------|
|--7-222-22-7-22-6-22-6-2----|x2
|----------------------------|
|----------------------------|
     ... ..   ..   .. . .

(1:59-2:07)
Breakdown
|--------------------------------------------|
|--------------------------------------------|
|--------------------------------------------|
|--1-1--1-1--1-1--1-1--1-1--1-1--1-1-111-111-|x2
|--0-0--0-0--0-0--0-0--0-0--0-0--0-0-000-000-|
|--1-1--1-1--1-1--1-1--1-1--1-1--1-1-111-111-|
   . .  . .  . .  . .  . .  . .  . . ... ...

Lead over breakdown
|----------------------------------------------|
|----------------------------------------------|
|----------------------------------------------|
|--1-1--1-1--1-1-1-1-1--1-1-1-1-1--1-1-111-111-|x2
|--0-0--0-0--0-0-0-0-0--0-0-0-0-0--0-0-000-000-|
|--1-1--1-1--1-1-1-1-1--1-1-1-1-1--1-1-111-111-|
   . .  . .  . . . . .  . . . . .  . . ... ...

(2:08-2:15)
|------------------------------------------------------|
|------------------------------------------------------|
|------------------------------------------------------|
|--11-111--1-11-111-11-1-11111--111-1-11-111-11-1-111--|x2
|--00-000--0-00-000-00-0-00000--000-0-00-000-00-0-000--|
|--11-111--1-11-111-11-1-11111--111-1-11-111-11-1-111--|
   .. ...  . .. ... .. . .....  ... . .. ... .. . ...

(2:16-2:18)
|------------------------|
|----------5-------------|
|-------5----------------|
|--73-------73-----------|
|----737-73---73---------|
|---------------730------|
     ... .. ....

(2:18-3:00)
|--3-3333~--9999--7~7777----------------------------|
|--5-5555~--5555--9~999910101010-1213-1213-1213-----|
|--------------------------------x-x--x-x--x-x------|
|--3-3333---3333--7-7777-7777----9-10-9-10-9-10-----|x6
|--3-3333---3333--7-7777-7777-----------------------|
|--3-3333---3333--7-7777-7777-----------------------|

(2:32-3:00)
Lead
|----------------------12~----|
|-------13~---9~--10~---------|
|--9~-------------------------|
|-----------------------------|x5
|-----------------------------|
|-----------------------------|


(3:00-3:13)
My favorite Ending chord
|------------|
|------0~----|
|-----5~-----|
|--3-6~------|
|--3~--------|
|--3~--------|


Any question hit me up on myspace www.myspace.com/codsterrrrr
Tap to rate this tab
# A B C D E F G H I J K L M N O P Q R S T U V W X Y Z