Song name
# A B C D E F G H I J K L M N O P Q R S T U V W X Y Z

Mary Timony - On The Floor tab

-------------------------------------------------------------------------------
			     On The Floor - Mary Timony
-------------------------------------------------------------------------------
Tabbed by:AllHailMe94
Email:
MaryTimony.com

Tuning:EADGBE

Intro
e|---------------------------------------------------------------------------|
B|---------------------------------------------------------------------------|
G|-----------7--------9--9-----------------7--------5--5---------------------|
D|-----7-----5--------7--7-----------7-----5--------3--3---------------------|
A|-----5-----------------------------5---------------------------------------|
E|---------------------------------------------------------------------------|

Verse
e|---------------------------------------------------------------------------|
B|---------------------------------------------------------------------------|
G|------------------7--7-----------------------------------------------------|
D|-----7---7--------5--5-----------------------------------------------------|
A|-----5---5-----------------------------------------------------------------|
E|---------------------------------------------------------------------------|

Chorus
e|---------------------------------------------------------------------------|
B|---------------------------------------------------------------------------|
G|---------------------------------------------------------------------------|
D|---------------7--7-----------5--5-----------------------------------------|
A|-----7--7------5--5-----7-----3--3------5--5-------------------------------|
E|-----5--5---------------5---------------3--3-------------------------------|

Melody
e|---------------------------------------------------------------------------|
B|---------------------------------------------------------------------------|
G|----9--9---11---12---14---16---12------------------------------------------|
D|----7--7---9----10---12---14---10------------------------------------------|
A|---------------------------------------------------------------------------|
E|---------------------------------------------------------------------------|

e|---------------------------------------------------------------------------|
B|---------------------------------------------------------------------------|
G|---------------------------------------------------------------------------|
D|-----9--11--12---14---16---14---12--11---9---------------------------------|
A|-----7--9---10---12---14---12---10---9---7---------------------------------|
E|---------------------------------------------------------------------------|


| /  slide up
| \  slide down
| h  hammer-on
| p  pull-off
| ~  vibrato
| +  harmonic
| x  Mute note
===============================================================================
Tap to rate this tab
# A B C D E F G H I J K L M N O P Q R S T U V W X Y Z