Song name
# A B C D E F G H I J K L M N O P Q R S T U V W X Y Z

Mary Timony - Summers Fawn tab

tuning (low to high) DADGAe


b = bend
/ or \ = slide
h = hammer-on
p = pull-off

main riff (roughly; strumming's easy to pick up)

e----------------------------------------------------------------|
A----------------------------------------------------------------|
G----------------------------------------------------------------|
D----------------------------------------------------------------|
A---12-12---7-7---101010---7-7---121212---7-7---10b-10b-10b-10b--|
D---8--8----7-7---8-8-8----7-7---8-8-8----7-7---10b-10b-10b-10b--|

chorus

e------------------------------------------------------------------------------------|
A---7/9---9-9---7--5--------------------7/9---9-9---7--5-----------------------------|
G---9/11--1111--9--7--9-------9---9-----9/11--1111--9--7--5--555--555-4-5/7-5-4-2-0--|   X2
D---0-----0-0---0--0--7-----7---7---7---0-----0-0---0--0--3--333--33-----------------|
A---0-----0-0---0--0--8---8-------------0-----0-0---0--0--3--333--33-----------------|
D---------------------------------------------------------3--333--33-----------------|

e-----------------------------------------------|
A-----------------------------------------------|
G-----------------0-3p2p0-------------3-2---2---|
D-----------0-2-3---------3p2p0-0h2h3-------0---|
A-----0-2-3---------------------------------0---|
D---5--------------------------------------(0)--|
                                            *

shes uses the whammy bar on last chord * (1st chorus only)
Tap to rate this tab
# A B C D E F G H I J K L M N O P Q R S T U V W X Y Z