Song name
# A B C D E F G H I J K L M N O P Q R S T U V W X Y Z

Masaaki Kishibe - Wonderful Tonight tab

Wonderful Tonight - Masaaki Kishibe - My Favorites
CGDGAD - Capo Fret 2
Tempo = 95


     ff
     >
     Q    E  E  Q       E  E      Q    E  E  Q      E  E
D||-------------7pbr----5--7~--|--L----------7br----5------|
A||----------------------------|-----------------------7~--|
G||----------------------------|---------------------------|
D||-------x--0-----------------|----------0----------------|
G||--0-------------------------|-------x-------------------|
C||----------------------------|--6------------------------|


  Q    E  E  Q       E  E      Q    E  E  E  E  Q
-------------7pbr----5--7~--|--L----------------------|
--L-------------------------|-------------0-----------|
----------------------------|----------------0--------|
----------0-----------------|----------0--------------|
-------x--------------------|-------x-----------------|
--0-------------------------|--2----------------2/----|


    ff
    >
    Q    E  E  Q       E  E      Q    E  E  Q      E  E
|--------------7pbr----5--7~--|--L----------7br----5------|
|-----------------------------|-----------------------7~--|
|*----------------------------|---------------------------|
|*-------x--0-----------------|----------0----------------|
|---0-------------------------|-------x-------------------|
|-----------------------------|--6------------------------|


  Q    E  E  Q       E  E      E  E  E  E   E  E   Q
-------------7pbr----5--7~--|--L-----9-----10-----14----|
--L-------------------------|-----0-----0------0--------|
----------------------------|---------------------------|
----------0-----------------|---------------------------|
-------x--------------------|--7-----9-----11-----14----|
--0-------------------------|---------------------------|


   Q    E   E  E  E  E  E     E  E  Q    E  E  E  E
--12----L\-----------------|-----0--L-------------0--|
------------------3-----0--|-------------------------|
---------------4-----4-----|-------------------0-----|
------------0--------------|-------------x--4--------|
---0----L------------------|-------------------------|
---------------------------|--6----------------------|


                                mf mf mf
  Q    E  E   E  E  E  E     E  E  E  E  E  E   E  E
--------------------------|---------------------------|
--------------------2-----|---------------------------|
----------2s--4--5-----4--|-----2--2--2------------0--|
-------x--2s--4-----------|-----------------0h--2-----|
--------------------------|--------------x------------|
--0-----------------------|--2------------------------|


  ff
  >
  Q    E  E    E  E  E  E     E  E  Q    E  E  E  E
---------------------------|-----0--L-------------0--|
------------------------0--|-------------------------|
-------------2g4--5--4-----|-------------------0-----|
-------x--0----------------|-------------x--4--------|
--0------------------------|-------------------------|
---------------------------|--6----------------------|


                                mf mf mf                ff
                                                        >         ^
  Q    E  E   E  E  E  E     E  E  E  E  E  E  E  E     Q    Q    E  E  E  E
--------------------------|--------------------------|------------2--2-----0--|
--------------------2-----|--------------------------|------------3-----------|
----------2s--4--5-----4--|-----2--2--2--------------|------------0-----------|
-------x--2s--4-----------|-----------------0--------|-------x----2-----x-----|
--------------------------|--------------x-----2--4--|------------------------|
--0-----------------------|--2-----------------------|--0---------------------|


  E  E  E  E  E  E  E  E     Q    E  E  E  E  E  E     H        E  E  E  E
-----------------0--------|-------------------0-----|-----------------------|
-----0--------------------|-------2--2-----2--------|-----------------------|
--------------2-----------|-------0--0-----0-----0--|--------------0--2--4--|
--------x--0--------x-----|-------------------------|-----------x-----------|
--------------------------|--0----------------------|-----------------------|
--2--------------------2--|-------------6-----------|--4--------------------|


                                      mf                        mf
  Q     E  E  E  E   E  E     E  Q    Q    E  Q         E  Q    Q    E  Q
---------------------------|------------------------||-----------------------|
--3~----L--------2~--L--0--|-----0------------------||-----0-----------------|
--------------0------------|----------0-------0----*||----------0-------0----|
-----------2---------------|---------------0-------*||---------------0-------|
---------------------------|------------------------||-----------------------|
--0-----L------------------|--2---------------------||--2--------------------|


  ff
  >
  Q    E  E  E   E  E  E       Q     E  E  Q    E  E
--------------------0-----|--0g2~----0----------0-----|
--------------------0-----|---------------------------|
-------------2s--4-----0--|----0-----------4-------0--|
----------0---------------|-------------3-------------|
--0----L------------------|----0----------------------|
--------------------------|---------------------------|


     mf mf mf
  E  E  E  E  E  E  Q       E  E  E  E  E  Q     E      E  E  E  E  E  Q    E
--2--------2-------------|--0--------0---------------|-----------------0-------|
--3----------------------|--0--------------3~----2~--|--------2-----2----------|
--0-----0-----------0----|--0-----0------------------|--------0-----0-------0--|
--2--2-----------2-------|-----4--------x------------|-----0-------------------|
--------------x----------|---------------------------|--0----------------------|
--0----------------------|--2------------------------|-----------6-------------|


  H        E  E    E  E     H         E  E  E  E     H        Q    E  E
----------------------0--|--2~-----------2-----0--|----------------------|
-------------------------|------------------------|----------------0--2--|
--------------0--2g4-----|------------------0-----|----------------------|
-----------x-------------|------------x-----------|-----------x----------|
-------------------------|------------------------|----------------------|
--4----------------------|--0---------------------|--2-------------------|


  Q    Q    Q    E  E     Q    Q    E  E  E  E      Q    E   E  E  E  E  E
-----------------------|------------------------|--12----L\-----------------|
--3----2----0-------0--|-------2----0-----------|------------------3-----0--|
-----------------0-----|---------------0-----0--|---------------4-----4-----|
-----------------------|------------------------|------------0--------------|
-----------------------|------------------x-----|---0----L------------------|
--0--------------------|--2---------------------|---------------------------|


  E  E  Q    E  E  E  E     Q    E  E   E  E  E  E
-----0--L-------------0--|--------------------------|
-------------------------|--------------------2-----|
-------------------0-----|----------2s--4--5-----4--|
-------------x--4--------|-------x--2s--4-----------|
-------------------------|--------------------------|
--6----------------------|--0-----------------------|


     mf mf                    ff
                              >
  E  E  E  E   E  E  E  E     Q    E  E    E  E  E  E
--------------/5--4--2--0--|---------------------------|
---------------------------|------------------------0--|
-----2--2------------------|-------------2g4--5--4-----|
---------------------------|-------x--0----------------|
-----------0---------------|--0------------------------|
--2------------------------|---------------------------|


  E  Q    E   E  E  E  E     Q    E  E   E  E  E  E
-----0----7p--4--0--------|--------------------------|
--------------------0-----|--------------------2-----|
-----------------------0--|----------2s--4--5-----4--|
--------------------------|-------x--2s--4-----------|
--------------------------|--------------------------|
--6-----------------------|--0-----------------------|


     mf mf mf                ff
                             >         ^
  E  E  E  E  E  E  E  E     Q    Q    E  E  E  E
--------------------------|------------2--2-----0--|
--------------------------|------------3-----------|
-----2--2--2--------------|------------0-----------|
-----------------0--------|-------x----2-----x-----|
--------------x-----2--4--|------------------------|
--2-----------------------|--0---------------------|


                       ff
                       >
  E  E  E  E  E  E  E  S  S    Q    E  E  E  E  E  E     H        E  E  E  E
-----------------0----------|-------------------0-----|-----------------------|
-----0----------------------|-------2--2-----2--------|-----------------------|
--------------2-------------|-------0--0-----0-----0--|--------------0--2--4--|
--------x--0--------x-------|-------------------------|-----------x-----------|
----------------------------|--0----------------------|-----------------------|
--2--------------------2h-6-|-------------6-----------|--4--------------------|


                                      mf
  Q     E  E  E  E   E  E     E  Q    Q    E  Q
---------------------------|-----------------------|
--3~----L--------2~--L--0--|-----0-----------------|
--------------0------------|----------0-------0----|
-----------2---------------|---------------0-------|
---------------------------|-----------------------|
--0-----L------------------|--2--------------------|


  E  E   S  S E  E  E  E  E     E  E  E  E  E  E  E  E
-----5p--4p-0----------------|--------------------------|
--------------0-----3-----0--|--------0-----------0-----|
-----------------------4-----|-----4-----0-----0-----4--|
-----------------------------|--------------------------|
--0--------------------------|--------------------------|
-----------------6-----------|--4-----------2-----------|


                                      mf
  Q     E  E  E  E   E  E     E  Q    Q    E  Q
---------------------------|-----------------------|
--3~----L--------2~--L--0--|-----0-----------------|
--------------0------------|----------0-------0----|
-----------2---------------|---------------0-------|
---------------------------|-----------------------|
--0-----L------------------|--2--------------------|


  ff
  >
  Q    E  E  Q       E  E      Q    E  E  Q      E  E
-------------7pbr----5--7~--|--L----------7br----5------|
----------------------------|-----------------------7~--|
----------------------------|---------------------------|
-------x--0-----------------|----------0----------------|
--0-------------------------|-------x-------------------|
----------------------------|--6------------------------|


  Q    E  E  Q       E  E      Q    E  E  E  E  Q
-------------7pbr----5--7~--|--L----------------------|
--L-------------------------|-------------0-----------|
----------------------------|----------------0--------|
----------0-----------------|----------0--------------|
-------x--------------------|-------x-----------------|
--0-------------------------|--2----------------2/----|


  ff
  >
  Q    E  E  Q       E  E      Q    E  E  Q      E  E
-------------7pbr----5--7~--|--L----------7br----5------|
----------------------------|-----------------------7~--|
----------------------------|---------------------------|
-------x--0-----------------|----------0----------------|
--0-------------------------|-------x-------------------|
----------------------------|--6------------------------|


  Q    E  E  Q       E  E      E  E  E  E   E  E   Q
-------------7pbr----5--7~--|--L-----9-----10-----14----|
--L-------------------------|-----0-----0------0--------|
----------------------------|---------------------------|
----------0-----------------|---------------------------|
-------x--------------------|--7-----9-----11-----14----|
--0-------------------------|---------------------------|


  E  E   E   E   Q    Q
----------------12----L----||
------------10-------------||
--------11-----------------||
-----9---------------------||
--0------------------------||
---------------------------||


Duration Legend
---------------
W - whole
H - half
Q - quarter
E - 8th
S - 16th
T - 32nd
X - 64th
. - note dotted
|-n-|  - n-tuplets


Tablature Legend
----------------
L - tied note
x - dead note
g - grace note
(n) - ghost note
> - accentuded note
NH - natural harmonic
AH - artificial harmonic
TH - tapped harmonic
SH - semi harmonic
PH - pitch harmonic
h - hammer on
p - pull off
b - bend
br - bendRelease
pb - preBend
pbr - preBendRelease
brb - bendReleaseBend
\n/ - tremolo bar dip
\n - tremolo bar dive
-/n - tremolo bar Release up
/n\ - tremolo bar inverted dip
/n - tremolo bar return
-\n - tremolo bar Release down
S - shift slide
s - legato slide
/ -  slide into from below or out of upwards
\ -  slide into from above or out of downwards
~ - vibrato
W - wide vibrato
tr - trill
TP - tremolo picking
T - tapping
S - slap
P - pop
< - fade in
^ - brush up
v - brush down
Tap to rate this tab
# A B C D E F G H I J K L M N O P Q R S T U V W X Y Z