Song name
# A B C D E F G H I J K L M N O P Q R S T U V W X Y Z

Masked Intruder - Stick Em Up tab

-----------------------------------------------------------------
Stick 'Em Up - Masked Intruder (Site: http://www.fatwreck.com/band/index/106)
-----------------------------------------------------------------
Tabbed by: Ethan McQuade
Email: ethanmcquade@gmail.com
Tuning: Standard!

Alright, so this is my first tab, so I apologize if it's not really up to snuff. This
whole song is powerchords, so it shouldn't be that wretched. I'm also not putting the
strumming, because if you're familiar with the song at all it's really easy to figure 
out. The only part -not- in here is the mini-solo at the very end of the song. I'm not that
awesome, sorry. :/ Other than that. this is an extremely easy song that's fun to jam 
around to. If you're like me you'll use the simplicity as a chance to move around and have 
some fun!

Verse:
e|---------------------------------------------------------------|
B|---------------------------------------------------------------|
G|---------------------------------------------------------------|
D|---7---7---7-/-9~~~--------------------------------------------|
A|---7---7---7-/-9~~~-(Only ring out the last chord each verse.)-|
E|---5---5---5-/-7~~~--------------------------------------------| x4

Pre-chorus:
e|----------------|----------------------------------------------|
B|----------------|----------------------------------------------|
G|----------------|----------------------------------------------|
D|-\\\\\\\\\\\\\--|-5------7-------------------------------------|
A|-\\PICKSLIDE\\--|-5-x16--7-x16---------------------------------|
E|-\\\\\\\\\\\\\\-|-3------5-------------------------------------| x2

Chorus:
e|---------------------------------------------------------------|
B|---------------------------------------------------------------|
G|-----------7----------7----------------------------------------|
D|---9-------7---7------7---7------------------------------------|
A|---9-x16---5---7-x5---5---7-(Rest of the bar)------------------|
E|---7-----------5----------9------------------------------------| x2

-OR-

Some people might find this version of the chorus easier to play since you don't have to
go up a string.
e|---------------------------------------------------------------|
B|---------------------------------------------------------------|
G|---------------------------------------------------------------|
D|---9-------12---7------12---7----------------------------------|
A|---9-x16---12---7-x5---12---7-(Rest of the bar)----------------|
E|---7-------10---5------10---9----------------------------------| x2

Annnnnnd that's just about it!

Here's the song setup:
-----------
Intro (No guitar)
Verse
Pre-chorus
Chorus
Verse (6 times instead of 4.)
Pre-chorus
Chorus x2
Tap to rate this tab
# A B C D E F G H I J K L M N O P Q R S T U V W X Y Z