Song name
# A B C D E F G H I J K L M N O P Q R S T U V W X Y Z

Masked Intruder - Breakin tab

Preview Tab
Masked Intruder
Breakin'
Masked Intruder
STANDARD TUNNING

Contact:raimundolecompte@gmail.com

/////////////////////////////////////////////////////////////////////////////
This is my first tab. I didnt find any tabs online of this song and
decided to tab it out. I tried to make it as understandable as possible,
 so I hope you enjoy. Also, I also tabbed out the bass line, its pretty
much the same but it has a few licks on it, so if anyone wants me to
post that I surely will.
      -RLecompte
/////////////////////////////////////////////////////////////////////////////
INTRO
E-----------------------------------------------|(x2)
B--4--------4--------4--------2-----------------|
G----4--------4--------4--------3---------------|
D------4--------6--------6--------4-------------|
A-----------------------------------------------|
E-----------------------------------------------|

VERSE
E-----------------------------------------------|(x2)
B-----------------------------------------------|
G--44444----------------------------------------|
D--44444--4444--2222--6666----------------------|
A--22222--4444--2222--6666----------------------|
E---------2222--0000--4444----------------------|

PRE-VERSE/CHORUS
E-----------------------------------------------|
B-----------------------------------------------|
G-----------------------------------------------|
D--22222222--444---22222222--444----------------|
A--22222222--444---22222222--444----------------|
E--00000000--222---00000000--222----------------|

2nd VERSE/CHORUS
E-----------------------------------------------|(x2)
B-----------------------------------------------|
G--44444----------------------------------------|
D--44444--4444--2222--6666----------------------|
A--22222--4444--2222--6666----------------------|
E---------2222--0000--4444----------------------|

PRE-VERSE/CHORUS
E-----------------------------------------------|
B-----------------------------------------------|
G-----------------------------------------------|
D--22222222--444---22222222--444----------------|
A--22222222--444---22222222--444----------------|
E--00000000--222---00000000--222----------------|

INTRO
E-----------------------------------------------|(x2)
B--4--------4--------4--------2-----------------|
G----4--------4--------4--------3---------------|
D------4--------6--------6--------4-------------|
A-----------------------------------------------|
E-----------------------------------------------|

PRE-VERSE/CHORUS
E-----------------------------------------------|(x2)
B-----------------------------------------------|
G-----------------------------------------------|
D--22222222--444---22222222--444----------------|
A--22222222--444---22222222--444----------------|
E--00000000--222---00000000--222----------------|

LAST CHORUS
E-----------------------------------------------|(x4)
B-----------------------------------------------|
G--44444----------------------------------------|
D--44444--44444--66666--22222-------------------|
A--22222--44444--66666--22222-------------------|
E---------22222--44444--00000-------------------|

  End on:
E--------------------|
B--------------------|
G--1-----------------|
D--2-----------------|
A--2-----------------|
E--0-----------------|

NOTE: I prefer playing the part as in the actual chord,
 but if you want to end it in a power chord its perfectly fine.
Tap to rate this tab
 
# A B C D E F G H I J K L M N O P Q R S T U V W X Y Z