Song name
# A B C D E F G H I J K L M N O P Q R S T U V W X Y Z

Mason Jennings - Your New Man tab

Tune down 1/2 step. I can't promise you it's perfect, but it's the way I hear it.

Mason Jennings -- Your New Man
Solo

This is my first solo tab, so I hope it isn't too confusing. Since I can play it,
it's a really easy solo. Great song, have fun!


He doesn't play that first C chord, he just plays the
E-flat, but I put it in the tab anyway because it helps me to get my bearings.

Aww, come on . . .

 C      F
-0------1-1-------3-5-3-5-0----------------|
-1-1----1--1----------------1--------------|
-0--0---2---2---0-------------0------------|
-2------3----------------------------------|
-3------3----------------------------------|
--------1----------------------------------|

 C      F                  C   G
-0------1-1----------1-0---0---3-----------|
-1-1----1--1-------3-----3-1---3-----------|
-0--0---2---2---0-4--------0---0-----------|
-2------3------------------2---0-----------|
-3------3------------------3---2-----------|
--------1----------------------3-----------|
Tap to rate this tab
 
# A B C D E F G H I J K L M N O P Q R S T U V W X Y Z