Song name
# A B C D E F G H I J K L M N O P Q R S T U V W X Y Z

Matchbox 20 - How Far Weve Come tab

Hey this is my first tab and I think its right so plz rate it well!
this is an awesome song but I couldn’t find a good tab for it so i decided to write one myself
enjoy!
| /  slide up
| \  slide down
| h  hammer-on
| p  pull-off
| ~  vibrato
| +  harmonic
| x  Mute note

Acoustic Guitar intro:
e|--00-x-000-x-000-x-000-x-----x-----x-----x-----x-000-x-000-x-000-x-000-x|
B|--11-x-111-x-111-x-111-x-111-x-111-x-111-x-000-x-111-x-111-x-111-x-111-x|
G|--00-x-000-x-000-x-000-x-000-x-000-x-000-x-000-x-222-x-222-x-222-x-222-x|
D|--22-x-222-x-222-x-222-x-000-x-000-x-000-x-000-x-222-x-222-x-222-x-222-x|
A|--33-x-333-x-333-x-333-x-333-x-333-x-333-x-333-x-000-x-000-x-000-x-000-x|
E|-----x-----x-----x-----x-333-x-333-x-333-x-333-x-----x-----x-----x-----x|
    C                      ?(forgot)               Am

e|-111-x-111-x-111-x-111--------------------------------------------------|
B|-111-x-111-x-111-x-111--------------------------------------------------|
G|-222-x-222-x-222-x-222--------------------------------------------------|
D|-333-x-333-x-333-x-333--------------------------------------------------|
A|-333-x-333-x-333-x-333--------------------------------------------------|
E|-111-x-111-x-111-x-333--------------------------------------------------|
    F

Electric Guitar intro

e|------------------------------------------------------------|
B|-55-555-555-555-555-555-555-555-555-555-555-666-666-666-666-|
G|-55-555-555-555-555-555-444-555-555-555-555-555-555-555-555-|
D|------------------------------------------------------------|
A|------------------------------------------------------------|
E|------------------------------------------------------------|

Verse One;
Acoustic carries on playing the intro part and electric guitar stops

Chorus:
electric guitar
e|-----------------------------|
B|-----------------------------|
G|---------------555555--------|
D|-777777-333333-555555-555555-|
A|-777777-333333-333333-555555-|
E|-555555-111111--------333333-|

Acoustic still continues playing the intro riff

Verse 2
this time it is exactly he same as the intro, with the electric guitar playing as well

the riff is played twice

Solo:
im not sure if this solo is guitar or keyboard but i tabbed it anyway

Electric Guitar
e|---5-3---3-5-------3-5---5-3-------5-3---3-5-----------------|
B|-5-----------5---5-----------5---5-----------5---3-5-6-5-3-5-|
G|-------------------------------------------------------------|
D|-------------------------------------------------------------|
A|-------------------------------------------------------------|
E|-------------------------------------------------------------|

At the last part of this half of the solo the acoustic guitarist plays Am strumming 
(slowly getting louder) until the start of the next half. also at the very end of the solo.

e|---5-3---3-5-------3-5---5-3-------5-3---3-5-----------------|
B|-5-----------5---5-----------5---5-----------5-5-3-5-6-5-3-1-|
G|-------------------------------------------------------------|
D|-------------------------------------------------------------|
A|-------------------------------------------------------------|
E|-------------------------------------------------------------|
Ending:
the chorus is repeated and then this riff is played at the very end (electric)           
    acoustic (last note)
e|--------------------|  |-0-|
B|--------------------|  |-1-|
G|--------------------|  |-0-|
D|-333/555/777/999-10-|  |-2-|
A|-333/555/777/999-10-|  |-3-|
E|-111/333/555/777-8--|  |---|

email me any mistakes:
sunnyboi_95@hotmail.com

CHEERS!
Sun Woo Kim
Tap to rate this tab
# A B C D E F G H I J K L M N O P Q R S T U V W X Y Z