Song name
# A B C D E F G H I J K L M N O P Q R S T U V W X Y Z

Matchbox Twenty - I Will tab

I Will - Matchbox Twenty
-------------------------------------------------------------------------------
Tabbed by:Kris
E-mail:klk11-06@hotmail.com

Tuning: Standard

Intro

e|---0---0-----0------0---0-------0------0---0------0------0-------------------|
B|-----2---2------------2---2--------------2----2------------2--0--------------|
G|-2---------2-----1-----------1------2----------2-----1-------1---------------|
D|-----------------------------------------------------------------------------|
A|-----------------------------------------------------------------------------|
E|-----------------------------------------------------------------------------|

Repeat x2



e|---0---0-----0------0---0-------0------0---0------0------0-----------0-------|
B|-----0---0------------0---0--------------0----0------------0---0-------------|
G|-2---------2-----1-----------1------2----------2-----1-----------1-----------|
D|-----------------------------------------------------------------------------|
A|-----------------------------------------------------------------------------|
E|-----------------------------------------------------------------------------|

Repeat x2
     D           E
Then sleep pain away
            F#m
Dont let it go,
            A
Dont let it fade.
     D          E
Your dreams may cave,
            F#m
And falling apart
            A
Is the only way
   D     E
We go so low,
     D        E
When you dont know,
  A
I will

That little bit after the chorus:

e|----0---0--------0---0------0---0-------0---0--------------------------------|
B|------2---2--------2----------2---2-------2----------------------------------|
G|--2----------2-1----------2---------2-1--------------------------------------|
D|-----------------------------------------------------------------------------|
A|-----------------------------------------------------------------------------|
E|-----------------------------------------------------------------------------|


First tab, so hopefully its helpful!
Tap to rate this tab
# A B C D E F G H I J K L M N O P Q R S T U V W X Y Z