Song name
# A B C D E F G H I J K L M N O P Q R S T U V W X Y Z

Matt Corby - Letters tab

-------------------------------------------------------------------------------
			     Letters - Matt Corby
-------------------------------------------------------------------------------
Tabbed by: Parisa.

Tuning: Just normal.
This song may not be entirely correct, but this is what my guitar teacher taught me. 
you get the basic gist of it.

e|----------0-----------------0------------------0-----------------------0--|
B|--3----------------0-----------------0H1-------------1--------0-----------|
G|--------------------------------------------------------------------------|
D|--------------------------------------------------------------------------|
A|--------------------------------------------------------------------------|
E|--3---3------3-----3-----3------3----3-----3------3------3----3----3------|

e|---------------------------------------------------------------------|
B|--------------0----------------------0---------------0---------------|
G|---0H1--------------1--------0---------------------------------------|
D|-----------------------------------------4----2------------2-----0---|
A|---------------------------------------------------------------------|
E|----3-----3------3------3----3----3------3----3----3-------3------3--|

e|------------------------------------------------------------------------------------|
B|--------------------0----------0----------------------------------------------------|
G|------------------------------------------------------------------------------------|
D|------------------------------------------------------------------------------------|
A|----0H1-0---------------------------------------------------------------------------|
E|-------------3--3------3-3-3------3-3-----------------------------------------------|

Verse:

e|----------0-----------------0------------------0-----------------------0--|
B|--3----------------0-----------------0H1-------------1--------0-----------|
G|--------------------------------------------------------------------------|
D|--------------------------------------------------------------------------|
A|--------------------------------------------------------------------------|
E|--3---3------3-----3-----3------3----3-----3------3------3----3----3------|

e|----------------------------------------------------------------------------------|
B|--------------0----------------------0-------------1------------------------------|
G|---0H1--------------1--------0--------------2-----------2-------------------------|
D|----------------------------------------------------------------------------------|
A|--------------------------------------------0---0----0-----0----------------------|
E|----3-----3------3------3----3----3-----------------------------------------------|



************************************

| /   slide up
| \   slide down
| h   hammer-on
| p   pull-off
| ~   vibrato
| +   harmonic
| x   Mute note
| b   Bend
| pb  Pre-bend
| br  Bend release
| pbr Pre-bend release
| brb Bend release bend

************************************
Tap to rate this tab
 
# A B C D E F G H I J K L M N O P Q R S T U V W X Y Z