Song name
# A B C D E F G H I J K L M N O P Q R S T U V W X Y Z

Matt Corby - Into The Flame tab

Title:  Untitled/Into The Flame.
Album:  Into The Flame.
Artist: Matt Corby.
Year:   2011

Capo: 5th/7th/9th Depending on performance.

Intro:

 (Played Softly,Freely)

              Fmaj7/A           Csus2             C
e|----1-----------------1------------------------------------------|
B|--3---3--1--1-------3---3--1--1----------1------1----------------|
G|------------0h2---------------0-------0--0h2p0--0---0---0--------|
D|------------3-----------------0h2--------0------2-----2----------|
A|------------------------------3-----------------3---------3------|
E|-----------------------------------------------------------------|

              Fmaj7/A           Csus2                    G
e|----1-----------------1------------------------------------------|
B|--3---3--1--1-------3---3--1--1-----1------------------3---------|
G|------------0h2---------------0-----0------------------0---------|
D|------------3-----------------0h2---2------------------0---------|
A|------------------------------3-----3----3p2p0-----2---2---------|
E|-----------------------------------------------3-------3---------|

Verse:

 (Lightly Strummed, slightly muted)

         Am       G       Csus2     F     F         G        G
e|----------------------------------------1---------3--------3-----|
B|-------1--------0-------1---------------1---------3--------3-----|
G|-------2--------0-------0---------2-----3---------4--------4-----|
D|-------2--------0-------0h2p0-----3-----3---------5--------5-----|
A|----0-----------2-------3-----3---3-----3---------5--------------|
E|----------------3-----------------1-----1---------3--------------|
 So I threw--Your letter--into--the flame-------And watched----
      
     Csus2     F
e|-------------1----------------------------------------------------|
B|---1---------1----------------------------------------------------|
G|---0---------2----------------------------------------------------|
D|---0h20------3----------------------------------------------------|
A|---3-----3---3----------------------------------------------------|
E|-------------1----------------------------------------------------|
 The fire--Re--gain.

          Am       G     Csus2       F     F         G        G
e|-----------------------------------------1---------3--------3-----|
B|--------1--------0-----1-----------------1---------3--------3-----|
G|--------2--------0-----0-----------2-----3---------4--------4-----|
D|--------2--------0-----0h2p0-------3-----3---------5--------5-----|
A|-----0-----------2-----3-------3---3-----3---------5--------------|
E|-----------------3-----------------1-----1---------3--------------|
 These words--Have done--Nothing for you----------As I 
      
      Csus2           F      F    F     G         Csus2  C     F
e|--------------------1------1----1----------------------------1----|
B|---1----------------1------1----1---------------1------1-----1----|
G|---0----------------2------2----2-----0---------0------0-----2----|
D|---0h20--0----------3------3----3-----0---------0h2----2p0---3----|
A|---3----------3-----3-----------------2---------3------3-----3----|
E|--------------------1-----------------3----------------------1----|
 Did not---Read them--Through-------Now turned-To ash-in the---Flume.

Pre Chorus:

  (Strummed Slowly, slightly muted)
     Fm#11  F         Fm#11   F       C    C     C      G
e|---0------1---------0-------1------------0-----------------------|
B|---0------1---------0-------1-------1----1-----------------------|
G|---2------2---------2-------2-------0----0------------0----------|
D|---3------3---------3-------3-------2----------2------0----------|
A|---3------3---------3-------3-------3----------3------2----------|
E|---1------1---------1-------1-------------------------3----------|
 And co-----Lors--Are dull----As--The Feeling----Of the cold.

     Fm#11  F         Fm#11   F       C    C     C      G
e|---0------1---------0-------1------------0-----------------------|
B|---0------1---------0-------1-------1----1-----------------------|
G|---2------2---------2-------2-------0----0-------------0---------|
D|---3------3---------3-------3-------2----------2-------0---------|
A|---3------3---------3-------3-------3----------3-------2---------|
E|---1------1---------1-------1--------------------------3---------|
 And Mem---ories------Fall----As--The Fire----is getting old.

        F      Fm#11  F      Fm#11   F    Fm#11  F    
e|------1------0------1------0-------1----0------1-----------------|
B|------1------0------1------0-------1----0------1-----------------|
G|------2------2------2------2-------2----2------2-----------------|
D|------3------3------3------3-------3----3------3-----------------|
A|------3------3------3------3-------3----3------3-----------------|
E|------1------1------1------1-------1----1------1-----------------|
 Oh and I------Once---more---ache in so---rrow----

Chorus:

 (Soft Picking)

    C---------------     Am-----   Em----    F----    C-----
e|-----------------------------------------------------------------|
B|-----1--1-----1--1--------1--1--------------1--1------1--1-------|
G|-----0--0-----0--0--------2--2-----0--0-----2--2------0--0-------|
D|-----2--2-----2--2--------2--2-----2--2-----3--3------2--2-------|
A|--3---------3----------0-----------2--2-------------3------------|
E|---------------------------------0--------1----------------------|
 ---Don't you fret I'll--Find--my--way------Carefully-Walking--

          Am----   G-----
e|-----------------------------------------------------------------|
B|----------1--1---------------------------------------------------|
G|----------1--1-----0--0------------------------------------------|
D|----------2--2-----0--0------------------------------------------|
A|--------0----------2--2------------------------------------------|
E|-----------------3-----------------------------------------------|
 From the Devil's--plane.

    C---------------          Am-----   Em----        F-----    
e|-----------------------------------------------------------------|
B|------1--1-----1--1-------------1--1------------------1--1-------|
G|------0--0-----0--0-------------2--2-----0--0---------2--2-------|
D|------2--2-----2--2-------------2--2-----2--2---------3--3-------|
A|---3---------3---------------0-----------2--2--------------------|
E|---------------------------------------0------------1------------|
 And I know----why you did not follow----me-----Pride Swallowed

   C---    G        C
e|-----------------------------------------------------------------|
B|---1-1------------1----------------------------------------------|
G|---0-0---0--------0----------------------------------------------|
D|---2-2---0--------2----------------------------------------------|
A|-3-------2--------3----------------------------------------------|
E|---------3-------------------------------------------------------|
 --Me-Then led me---Astray.

Repeat Introduction.

Repeat Verse With lyrics:

 And now the dark in me has now seen the day
 Oh my chill has now lost its way
 And these hands that once had helped me to pray
 They are limp in all their dismay
 Oh they fall in their disarray

Repeat Pre Chorus.

Repeat Chorus

Finish 5:06.

----------------------------------------------------------------------------

Tabbed By: Eugene Noguera.

Please Rate.
Tap to rate this tab
# A B C D E F G H I J K L M N O P Q R S T U V W X Y Z