Song name
# A B C D E F G H I J K L M N O P Q R S T U V W X Y Z

Matt Costa - I Tried tab

Blacklist Union         I Tried
Tuning:Standard         Transcribed By: Jonathan A. Hosseini


intro
-----------------------------------|
-----------------------------------|
----------6-6------------6-6-----6-|
----------—------------------------|
----4-4-----------4-4---------4----|
-----------------------------------|

verse 1; palm muted
**********************************
-----------------------------------|
-----------------------------------|
----------6-6------------6-6-----6-|
----------—------------------------|
----4-4-----------4-4---------4----|
-----------------------------------|


----------------------------------|
----------------------------------|
----------------------------------|
----------------------------------|
---7/-----------------------------|
---5/-----------------------------|

I think that this is the slide he does

chorus

-------------------------------------|
-------------------------------------|
-------------------------------------|
-5-555555—7-777777-4-444444-5-555555-|
-5-555555-7-777777-4-444444-5-555555-|
-3-333333-5-555555-2-222222-3-333333-|


verse 2; palm muted
**********************************
-----------------------------------|
-----------------------------------|
----------6-6------------6-6-----6-|
----------—------------------------|
----4-4-----------4-4---------4----|
-----------------------------------|

*sorry couldn’t tab solo

chorus

-------------------------------------|
-------------------------------------|
-------------------------------------|
-5-555555—7-777777-4-444444-5-555555-|
-5-555555-7-777777-4-444444-5-555555-|
-3-333333-5-555555-2-222222-3-333333-|

/=slide downwards
*=palm mute


intro 8x
verse 1 [palm muted] 12x
chorus 2x
verse 2 12x

chorus 4 or 5x
Tap to rate this tab
 
# A B C D E F G H I J K L M N O P Q R S T U V W X Y Z