Guitaretab - guitar tabs
Song name
# A B C D E F G H I J K L M N O P Q R S T U V W X Y Z

Matt Pond Pa - Last Song tab

Song:   Last Song
Artist: Hale
Album:  Twilight
Tabbed by: Paul Anthonie Antoc
E-mail: paul_antoc@yahoo.com
Address: Mariveles,Bataan,Philippines
contact #: 09184423602

Elow po sa mga friends ko sila Calvin,Jon,Otep,Emak,Aerol,Tuts.. at iba 
pa.. sa mga clasm8s ko sa MNHS(annex) IV-A.. mabuhay kayong lahat.. hehe
Binabati ko rin si Maria Lourdes Vejar, HEHE.. wala lang.. HEHEHE!!



Gtr Legends:
 ~ - Let it ring
 / - slides
 x - dead note
 v - vibrato


Standard Tuning

Intro:
e|-----8----------------|
B|---8---8--------------|
G|---------5------------| 
D|----------------------|
A|----------------------|
E|----------------------|

Verse 1:
Guitar 1: F-G(strumming)3x  Am-G

Guitar 2:                      
e|-------------------         ------------------|  
B|-------------------         ------------------|
G|--------555--------         --5~---4~---------| 
D|---333--555-------- 3x Then --7~---5~---------|
A|---333--333--------         --7~---5~---------|
E|---111-------------         --5~---3~---------|


Verse 2:
Guitar 1: F-G(strumming)3x  Am-G

Guitar 2:  
e|--------------------------         -------------------------------|  
B|-----13-12-13v------------         -------------------------------|
G|--12-----------555--------         -12121212/14141414/16161616----| 
D|---------------555-------- 3x Then -xxxxxxxx/xxxxxxxx/xxxxxxxx----|
A|---------------333--------         -10101010/12121212/14141414----|
E|--------------------------         -------------------------------|


Chorus:

Guitar 1:Dm-Em-F 3x

Guitar 2:
e|------------------------|           
B|------------------------|        
G|--7777/9999/101010------|      
D|--xxxx/xxxx/xxxxxx------|   3x 
A|--5555/7777/888888------|    
E|------------------------|         

Guitar 1:Am-G-F
[ Tab from: http://www.guitaretab.com/m/matt-pond-pa/142572.html ]
Guitar 2:
e|--------------------------|           
B|--------------------------|        
G|--------------------------|      
D|--7777--5555--333333------|   
A|--7777--5555--333333------|    
E|--5555--3333--111111------| 

        
Repeat Verse 1 & 2
Repeat Chorus 2x

Bridge:

Guitar 1:
F-G-Am-G-C
F-E7-Am-G-Dm-G--

Guitar 2:
e|------------------------------------------------------------|           
B|------------------------------------------------------------|        
G|----------------------5555---------------------7777---------|
D|--3333-5555-7777-5555-5555-3333-2222-7777-5555-7777-55555---|   
A|--3333-5555-7777-5555-3333-3333-2222-7777-5555-5555-55555---|
E|--1111-3333-5555-3333------1111-0000-5555-3333------33333---|



Chorus: (Strum once)
    Dm Am F
e|--1-----1--------          ----3--1-----|
B|--3--1--1--------          -1--3--1-----|
G|--2--2--2--------          -2--0--2-----|
D|--0--2--3--------  3x Then -2--0--3-----|
A|-----0--3--------          -0--2--3-----|
E|--------1--------          ----3--1-----|


Outro:
     Am      G       F
e|--------------------------|           
B|--------------------------|        
G|--------------------------|      
D|--777777-555555-333333----|   
A|--777777-555555-333333----|    
E|--555555-333333-111111----|         

Last chord:
    F
e|-------|           
B|-------|        
G|-------|      
D|--3----|   
A|--3----|    
E|--1----|


End

Last Song Lyrics:

Verse:
I知 breathing the air		                   
I知 thinking of what you致e done and said
You crumpled my heart    
I was down on my knees

I知 hurting down inside
Wondered if you still even cared
I致e cried all alone
I知 done with all this tears


Chorus:	       
I知 singing my last song
I知 singing my last song	 
I知 singing my last song
For you..


Verse:
I知 healing the wounds
I知 staring at stars across my room
My meaning is lost
I知 bound for defeat

Discover me inside
It all just a memory left behind
One day I値l fly
So high above my feet

Repeat Chorus 2x

Bridge:
And the first time
Is the last thing I知 gonna make
And the next in line
Is the one that whose gonna break you

Repeat Chorus:

Coda:
For you
You
You

Related for Last Song tab