Song name
# A B C D E F G H I J K L M N O P Q R S T U V W X Y Z

Matt Pond Pa - St Andrews tab

Verse Chords
e---7-------7----------|
b---7---9---7---11-----|
G---8---9---8---11-----|
D---9---9---9---11-----|
A---9---7---9---9------|
E---7-------7----------|

Chorus Chords
e---7-------------|
b---7---------9---|
G---8---------9---|
D---9---------9---|
A---9---------7---|
E---7-------------|
    .
The Bridge just uses the same chords as the verses.
I didn't include strumming patterns since you guys can figure those out.

. = palm mute

Tap to rate this tab
# A B C D E F G H I J K L M N O P Q R S T U V W X Y Z