Song name
# A B C D E F G H I J K L M N O P Q R S T U V W X Y Z

Matt Wertz - Wandering Eyes Acoustic tab

Intro

 ----------------|----------------|-------------------|----------|
 --3-0-----------|--3-0-----------|--3-0--------0h2p0-|----------|
 ------2---2-4---|------2---------|------2---2--------|----------|
 --------4-------|--------4-2-0---|--------4----------|----------|
 2-------------4-|2-------------4-|2------------------|2--2------|
 ----------------|----------------|-------------------|------3-5-|

Verse

 ----------------|----------------|-------------------|----------|
 --3-0-----------|--3-0-----------|--3-0--------0h2p0-|----------|
 ------2---2-4---|------2---------|------2---2--------|----------|
 --------4-------|--------4-2-0---|--------4----------|----------|
 2-------------4-|2-------------4-|2------------------|2--2--2-2-|
 ----------------|----------------|-------------------|----------|

Chords

(799xxx)

(577xxx)

(355xxx)


I'm pretty sure the intro/verse are right. Listen to the song to get
the chord progression down. It's only those 3 chords and the strumming
isn't difficult to pick up on.

I searched the internet for over a month trying to find this tab and
finally just got sick of it and tried to figure it out myself. This
is my first tab, so email me at l337haxz0rz2000@yahoo.com with any
suggestions or edits. Have fun!
Tap to rate this tab
 
# A B C D E F G H I J K L M N O P Q R S T U V W X Y Z