Song name
# A B C D E F G H I J K L M N O P Q R S T U V W X Y Z

Matt Wertz - Marianne tab

----------------------------------------------------------------------------
			     Marianne - Matt Wertz
----------------------------------------------------------------------------
Tabbed by: Graham Childs www.myspace.com/grahamchilds
Email: Kilograham@aol.com

Tuning:Standard
Capo 4

Intro:
e|-xxx---------------------------------------| 
B|-xxx--0h111p0--0h111p0--0h111p0--0h111p0---| 
G|-xxx--0-000----0-000----0-000----0-000-----| 
D|-xxx--0-000---22-222---xx-xxx----0-000-----| 
A|-xxx-x--------0--------3--------x----------| 
E|-xxx-3--------------------------3----------| 

Verse, Chorus, Pre-Bridge, Outro:
e|---------------------------------------| 
B|--0h111p0--0h111p0--0h111p0--0h111p0---| 
G|--0-000----0-000----0-000----0-000-----| 
D|--0-000---22-222---xx-xxx----0-000-----| 
A|-x--------0--------3--------x----------| 
E|-3--------------------------3----------| 

Bridge: (these are just the chords ya gotta figure out the strumming)
e|---------------------------------| 
B|-3--3--3--3----3--3--3--3--3-----| 
G|-2--0--0--0----2--0--0--0--2-----| 
D|-0--0--0--0----0--0--0--0--0-----| 
A|----2--3--0----0--2--3--3--------| 
E|----------3----------------------| 

Hope you guys enjoy! Rate me high!


| h  hammer-on
| p  pull-off
| x  Mute note
===================================================================
Tap to rate this tab
 
# A B C D E F G H I J K L M N O P Q R S T U V W X Y Z