Song name
# A B C D E F G H I J K L M N O P Q R S T U V W X Y Z

Matt Wertz - Someone Like You tab

Nice (i think) tab, to nice song

Someone Like You (studio version)
This song is on different tuning (live and studio; for example: 
http://www.youtube.com/watch?v=wsI6SmMwUnk), but my tab is standard.


Intro, verse and chorus is D#, A#, G# and A#
You can play (and Matt does it) it in many different ways, like:


e----------------------------|
b----------6-----------6-----|
g----8-----7----(5)----7-----|
d----8-----8-----6-----8-----|
a----6-----x-----6-----x-----|
e----------6-----4-----6-----|
     D#    A#    G#    A#

or you can play normal powerchords,

BUT i guess, Matt plays something like that:


e----------------------------|
b------*---------------------|
g----7h8--(7)---------(7)----|
d----8-----8-----8-----8-----|
a----6-----8-----6-----8-----|
e----------6-----4-----6-----|
     D#    A#    G#    A#
*chorus and second part of verse without this hammer on.

(is optional)

Mix this chords what you want.

Second guitar in verse:
Im not sure about it, but try this:

e------------------------------------------------|
b------6/3-3h4--------------6/3-3h4--------------|
g----8---------3-0p1/3----8---------3-1h3p1p0----|  x many times
d------------------------------------------------|
a------------------------------------------------|
e------------------------------------------------|

Bridge:
C, A#, G# and optional: D#

e----------------------|
b---(4)----------------|
g----5----(7)---(5)----|
d----5-----8-----6-----|
a----3-----8-----6-----|
e----------6-----4-----|
     C     A#     G#*
*or
e----------|
b----4-----|
g----5-----|
d----6-----|
a----x-----|
e----4-----|
     G#

end of bridge:

e----------------------|
b---(4)----------------|
g----5----(7)----------|
d----5-----8-----6~----|
a----3-----8-----6~----|
e----------6-----4~----|
     C     A#    G#

That's all... I show many ways, so you can play what you want.

Have fun.
Tap to rate this tab
 
# A B C D E F G H I J K L M N O P Q R S T U V W X Y Z