Song name
# A B C D E F G H I J K L M N O P Q R S T U V W X Y Z

Matt Wertz - Heartbreaker tab

Tabbed by: Ben "The Man" Muir

Tuning: Standard

e|--------6-------4-------x------x------x------x--------------------------------------|
B|--------6-------4-------x------x------x------x--------------------------------------|
G|--------7-------5-------8------3------5------10-------------------------------------|
D|--------8-------6-------8------3------5------10-------------------------------------|
A|--------8-------6-----6-6------x----3-3----8-8--------------------------------------|
E|------6-6-----4-4-------x----3-3------x------x--------------------------------------|
	  A# 	  G#	  D#    Gm7	C      F


Verse 1:
 A#
Hey!
  G#	       D#	      A#
What ya wanna do about this thing?
      G#              D# 			Gm7
Be careful with that game you're tryin to bring
Gm7 		 C
I'm trying so hard just to ignore
		D#		  (pause)	A#
But all of my thoughts just seem to form around you
    G#  	D#  		  A#
And the subtleties you start to sling
	G#		D#		  Gm7
Like, "I don't care about the songs you sing"
		C
And now I can't take this any more
		D#
But I've never seen your type before


Chorus:
     A#			F	    D#		   	A# F D#
Heartbreaker, it just feels like somethings going on
     A#			F          D#		  C (5 down strokes)
Heartbreaker, it just feels like somethings going on


Verse 2:
 A#
Baby!
 G#                D#		  A#
I'm not like the other guys you see
      G#	   D#	   Gm7
You need to handle me so gently
		C
I'm putting my heart out on the line
		D#
To see if the same thing's on your mind


Chorus:
     A#			F	    D#		   	A# F D#
Heartbreaker, it just feels like somethings going on
     A#			F          D#		  C (5 down strokes)
Heartbreaker, it just feels like somethings going on


(2nd Guitar)
e|-------------6----------------------6--------6--8/10-------|
B|------6h8p6-----8--6--6------6h8p6------8------------------|
G|-----------------------------------------------------------|
D|-----------------------------------------------------------|
A|-----------------------------------------------------------|
E|-----------------------------------------------------------|

e|--------------6--------------------------------------------|
B|------6h8p6------8--6--6------6h8p6------------------------|
G|---------------------------------------7---5---3---3-------|
D|-----------------------------------------------------------|
A|-----------------------------------------------------------|
E|-----------------------------------------------------------|

Heartbreaker, it just feels like somethings going on
Heartbreaker, it just feels like somethings going on

Breakdown:
   		A#
You broke my heart, you broke my mind
      F			 D#
Girl, you done broke me down inside.
		A#
You broke my name, you broke my will
     F		   D#
I can't believe I love you still.
     	    A#
Can't go back, can't move on
   F		      D#
Any other girl I'd be long gone
	A#
Don't know what to do
 	G#
Can't get over you...
   A# (2 down strokes)  G# (2 down strokes)  A# (let ring)
Heartbreaker!
Tap to rate this tab
# A B C D E F G H I J K L M N O P Q R S T U V W X Y Z