Guitaretab - guitar tabs
Song name
# A B C D E F G H I J K L M N O P Q R S T U V W X Y Z

Matt Wertz - The Way I Feel tab

Highlighted       Show chord diagrams
The Way I Feel
By Matt Wertz

Intro/ Verse:
 G#7     F#/Eb (x4)     Dm7 F#dim
|-----4-----------|------------------|  (first half is intro)
|----------7------|--(6)--5---2------|
|--4h5-----6------|--(5)--4---3------|  (play twice for verse 1)
|--4-------4------|--(3)--6---2------|
|--6-------6------|--(5)--4----------|
|--4--------------|-----------2------|

Verse 1:
I could talk until my face turns blue
Going on Ďbout what I wanna do with you
Iím so tired of being alone, yeah

What you say we just get outta here
Just hop into my car and disappear
I know you know whatís going on
Whatís going on, yeah yeah

(lead into chorus)
  C#
-----
--6--
--6--
--6--
--4--
-----

Chorus 1: (all choruses are the same and use these chords)
  G#      C#  (x4)
|--4-------4-----|
|--4-------6-----|
|--5-------6-----|
|--6-------6-----|
|--6-------4-----|
|--4-------------|

I canít help the way I feel about you now
When everything inside of me is singing out
Itís just the way I feel

Verse 2:
   G#7    F#/Eb (x4 )     Dm7 F#dim
|------4-----------|------------------|
|-----------7------|--(6)--5---2------|
|---4h5-----6------|--(5)--4---3------|  (play once for verse 2)
|---4-------4------|--(3)--6---2------|
|---6-------6------|--(5)--4----------|
|---4--------------|-----------2------|

What would happen if I came real clean
When every girl before has fled the scene
I guess weíll wait and see
Yeah yeah yeah yeah

[ Tab from: http://www.guitaretab.com/m/matt-wertz/177596.html ]
 Dm7   F#dim    G#7   F#/Eb  (x2)
|-----------------4----------|
|--5-----2-------------7-----|
|--4-----3-----4h5-----6-----|
|--6-----2-----4-------4-----|
|--4-----------6-------6-----|
|--------2-----4-------------|
Dm7           F#dim          G#7  F#/Eb
They say this happens nearly everyday

  Dm7  F#dim     Dm7    Eb7  (x2)
|-------------|---------------|
|--5-----2----|---5------4----|
|--4-----3----|---4------6----|
|--6-----2----|---6------5----|
|--4----------|---4------6----|
|--------2----|---------------|
Dm7        F#dim          Dm7           Eb7
But not to me and that is why I want to say, yeah

Chorus 2:
I canít help the way I feel about you now
When everything inside of me is singing out

Bridge:
(1st & 2nd lines)  (3rd line)   (4th line, to chorus)
  C# Dm Bbm       C# Dm F7        C# Dm Bbm  Eb7
-------(1)----|---------1----|---------(1)---------|
-------(2)----|---------1----|---------(2)---4-----|
--6--5--3-----|---6--5--2----|----6--5--3----6-----|
--6--5--3-----|---6--5--1----|----6--5--3----5-----|
--4--3--1-----|---4--3--3----|----4--3--1----6-----|
--------------|---------1----|---------------------|

No I cannot help the way
I canít help the way
No I cannot help the way, yeah
I cannot help the way, the way I feel

Chorus 3:
Matt: I canít help the way I feel about you now
Marc: (About you baby)
Matt: When everything inside of me is singing out
Marc: (Everything inside of me is singing it yeah)

I canít help the way I feel about you now
When everything inside of me is singing out

(When playing acoustic he likes to end it on this nice chord:)
G#maj7
-----
--4--
--5--
--5--
--6--
--4--
Related for The Way I Feel tab