Song name
# A B C D E F G H I J K L M N O P Q R S T U V W X Y Z

Matteo Carcassi - Op 60 Study No 9 In A tab

Carcassi - Estudio 9 op.60

[updated 6th Feb 2001]

Tuning        : E A D G B E
Time signature: 4/4
Key Signature : a-major / c-major

  |       |       |       |          |       |       |       |         
||--------2---0-----------7---5----|-----109-7-------0---4-2-0--------|
|*1h2-1h2---------4h5-4h5----------|-9---------109-7-----------3-2-0--|
||---------------------------------|----------------------------------|
||---------------------------------|----------------------------------|
|*0---------------0----------------|----------------------------------|
||---------------------------------|-0---------------0----------------|

  |       |       |       |          |       |       |       |         
|---------2---0-----------4---2----|-0-----------9-1112---------------|
|-1h2-1h2---------3h4-3h4----------|-------9-1012---------------------|
|----------------------------------|-----11---------------------------|
|-----------------4----------------|----------------------------------|
|-0--------------------------------|----------------------------------|
|----------------------------------|-0--------------------------------|

  |       |       |       |          |       |       |       |         
|---------2---0-----------7---5----|---------9---7---6h7-6h7-12--10---|
|-1h2-1h2---------4-5-4h5----------|-6h7-6h7--------------------------|
|----------------------------------|----------------------------------|
|----------------------------------|-0---------------0----------------|
|-0---------------0----------------|----------------------------------|
|----------------------------------|----------------------------------|

                                                                  Fine
  |       |       |       |          |       |       |       |         
|-9---109---------0---4p2-0--------|---------0-2-4-5-----------------||
|---------12109-------------3-2-0--|---0-2-3-------------------------||
|---------------11-----------------|-2---------------2---------------||
|----------------------------------|---------------------------------||
|----------------------------------|-0---------------0---------------||
|-0---------------0----------------|---------------------------------||

  |       |       |       |          |       |       |       |         
|----------------------------------|-------------2-4-5----------------|
|-------------------------2p0-2p0--|-0---0h2-4-5----------------------|
|---------------------1---1--------|-2--------------------------------|
|---------------1-2-------2--------|-4--------------------------------|
|---------0-2-4--------------------|----------------------------------|
|-0---2-4--------------------------|----------------------------------|

  |       |       |       |          |       |       |       |         
|-------------------------4p2-4p2--|-0-----------9-1112---------------|
|-----------------0---4---0--------|-0-----9-1012---------------------|
|-------------1-2---------2--------|-1---11---------------------------|
|-------1-2h4----------------------|----------------------------------|
|-2---4----------------------------|----------------------------------|
|----------------------------------|----------------------------------|

  |       |       |       |          |       |       |       |         
|---------------------8---11-------|---------------------9---12-------|
|-8h9-8h9-10--9---9----------------|-8h9-8h9-10--9---9----------------|
|-----------------8----------------|-----------------9----------------|
|-----------------10---------------|-----------------11---------------|
|----------------------------------|----------------------------------|
|----------------------------------|----------------------------------|

  |       |       |       |          |       |       |       |         
|---------9---------------7--------|-0-----------9-1112--0---0---0----|
|-----10--------------7-8----------|-------9-1012---------------------|
|-11--------------8----------------|-1---11---------------------------|
|-11--------------7----------------|-2--------------------------------|
|-0--------------------------------|----------------------------------|
|-----------------7----------------|----------------------------------|

  |       |       |       |          |       |       |       |         
|-0h1-0h1-5---3---0----------------|----------------------------------|
|---------------------1------------|----------------------------------|
|-------------------------0--------|---------2---0--------------------|
|-----------------------------2----|-2h3-2h3---------3---0------------|
|----------------------------------|-------------------------2--------|
|----------------------------------|-----------------------------3----|

  |       |       |       |          |       |       |       |         
|----------------------------------|----------------------------------|
|----------------------------------|-------------------------4h5-4h5--|
|-----0---------------0------------|-----0-----------4h5-4h5----------|
|---------4h5-4h5-0-------4h5-4h5--|-2-------4h5-4h5------------------|
|-3--------------------------------|-3--------------------------------|
|-0---------------3----------------|----------------------------------|

                    Da Capo al Fine
  |       |       |       |         
|-0---4---3h4-3h4-----7---6h7-6h7-||
|-3---------------5---------------*|
|-----------------7---------------||
|---------------------------------||
|---------------------------------*|
|-0---------------0---------------||
                     

Created with TablEdit http://www.tabledit.com/

***********************************************************************
**                  TablEdited by D.Meineke, 02/01                   **
**                    e-mail: d.meineke@web.de                       **
**          Dirkґs GuitarPage at: www.geocities.com/mke_dgp          **
**  Get TablEdit file (tef) MIDI (mid) and sheet music (pdf) there.  **
***********************************************************************
Tap to rate this tab
 
# A B C D E F G H I J K L M N O P Q R S T U V W X Y Z