Matteo Carcassi - Rondo tab

This is the "Text" Version to my GP Tab...

Rondo by Mattea Carcassi 

Key is E Major for those who want to know... 
standard tuning anyway
(B=H ; bB=B)

6/8 time
Repeat this one time (with the bit before)       
e||-----||-----------0-|-----------0-|-2---2-2---2-|-4---4-4-----|
h||-----||-0---0-0-----|-2---2-2-4---|---0-----0---|---0-----1-2-|
g||-1-2-||-1---1-1-----|-2---2-2-----|-------------|-2---2-2-----|
D||-----||-------------|-------------|-1---1-1---1-|-------------|
A||-----||-------------|-0-----------|-------------|-------------|
E||-----||-0-----0-----|-------------|-------------|-------------|
    5 6    1 2 3 4 5 6   1 2 3 4 5 6   1 2 3 4 5 6   1 2 3 4 5 6
e||-----------0-|-----------0-|-2---2-2---2-|-0-------|
h||-0---0-0-----|-2---2-2-4---|---0-----0---|-0-------|
g||-1---1-1-----|-2---2-2-----|-------------|-1-------| this last is
D||-------------|-------------|-1---1-1---1-|-2-------| 4/8 long
A||-------------|-0-----------|-------------|---------|
E||-0-----0-----|-------------|-------------|---------|
   1 2 3 4 5 6   1 2 3 4 5 6   1 2 3 4 5 6   1 2 3 4 


Repeat one time
e||-2-4-||-5---5-5---5-|-2---2-2---2-|-4---4-4---4-|-0---0-0---0-|
h||-----||---0-----0---|---0-----0---|---0-----0---|---0-----4---|
g||-----||-------------|-------------|-------------|-1---1-1-----|
D||-----||-4---4-4---4-|-1---1-1---1-|-2---2-2---2-|-------------|
A||-----||-------------|-------------|-------------|-------------|
E||-----||-------------|-------------|-------------|-------------|
    5 6    1 2 3 4 5 6   1 2 3 4 5 6   1 2 3 4 5 6   1 2 3 4 5 6
e||-2-----2-----|-4-----4-----|-5-----5-----|-2----------|
h||---0-0---0-0-|---0-0---0-0-|---0-0---0-0-|------------|
g||-------------|-------------|-------------|--------1-2-|
D||-1-----1-----|-2-----2-----|-4-----4-----|-1----------|
A||-------------|-------------|-------------|------------|
E||-------------|-------------|-------------|------------|
    1 2 3 4 5 6  1 2 3 4 5 6   1 2 3 4 5 6   1 2 3 4 5 6
e||-----------0-|-----------0-|-2---2-2---2-|-4---4-4-----|
h||-0---0-0-----|-2---2-2-4---|---0-----0---|---0-----1-2-|
g||-1---1-1-----|-2---2-2-----|-------------|-2---2-2-----|
D||-------------|-------------|-1---1-1---1-|-------------|
A||-------------|-0-----------|-------------|-------------|
E||-0-----0-----|-------------|-------------|-------------|
    1 2 3 4 5 6   1 2 3 4 5 6   1 2 3 4 5 6   1 2 3 4 5 6
e||-----------0-|-----------0-|-2---2-2---2-|-0-------|
h||-0---0-0-----|-2---2-2-4---|---0-----0---|-0-------|
g||-1---1-1-----|-2---2-2-----|-------------|-1-------| this last is
D||-------------|-------------|-1---1-1---1-|-2-------| 4/8 long
A||-------------|-0-----------|-------------|---------|
E||-0-----0-----|-------------|-------------|---------|


last part, two times ^^ key changes to E minor
e||-0---||-------------|-0---0-0-5-4-|-2---2-2---0-|-------------|
h||---3-||-2---2-2---3-|-2---2-2-----|-3---3-3---2-|-3---3-3-3-2-|
g||-----||-2---2-2---4-|-------------|-------------|-4---4-4-----|
D||-----||-------------|-------------|-------------|-------------|
A||-----||---0-----0---|---0---------|---0-----0---|-------------|
E||-----||-------------|-------------|-------------|---0---------|
    5 6    1 2 3 4 5 6   1 2 3 4 5 6   1 2 3 4 5 6   1 2 3 4 5 6
e||-------------|---------0---|-----0-----0-|---------| 
h||-0---0-0---2-|-3---3-3---3-|-2-----0-----|-2-------| last one
g||-1---1-1---2-|-4---4-4-----|-2-----1-----|-2-------| 4/8 time
D||-------------|-------------|-------------|---------|
A||-------------|-------------|---0---------|-0-------|
E||---0-----0---|---0---------|---------0---|---------|
    1 2 3 4 5 6   1 2 3 4 5 6   1 2 3 4 5 6   1 2 3 4

Repeat Part 1 and part 2 (only one time)
Tap to rate this tab
 
# A B C D E F G H I J K L M N O P Q R S T U V W X Y Z