Song name
# A B C D E F G H I J K L M N O P Q R S T U V W X Y Z

Matteo Carcassi - Op 60 Study No 4 In D tab

Op 60, Study No 4 in D - Matteo Carcassi (1792-1853)
from 25 Studi Melodici e Progressivi

tabbed by Weed - weed@wussu.com - 1 February 2011

see below tab for the legend

tuning: E A D G B E   -   time: 2/4   -   tempo: Allegretto


    _3_   _3_   _3_   _3_
   | | | | | | | | | | | |
1  | . . , . . | . . , . .   | . . , . . | . . , . .   | . . , . . | . . , . .
e|-----5-7p5---7p5---7p5---|-----2-3p2---3p2---3p2---|-----3-5p3---5p3---5p3---|
B|---7-------7-----7-----7-|---3-------3-----3-----3-|---5-------5-----5-----5-|
G|*------------------------|-------------------------|-------------------------|
D|*0=======================|-0=======================|-------------------------|
A|-------------------------|-------------------------|-0=======================|
E|-------------------------|-------------------------|-------------------------|
     3 1 4                     2 1 3                     3 1 4
   p i m a   m a  m a  m     p i m a   m a   m a   m

4  | . . , . . | . . , . .   | . . , . . | . . , . .   | . . , . . | . . , . .
e|-----0-2p0---2p0---2p0---|-----2-3p2-------4-5p4---|-----5-7p5-------7-9p7---|
B|---2-------2-----2-----2-|---3-------3---3-------3-|-------------------------|
G|-------------------------|-------------------------|---6-------6---7-------7-|
D|-------------------------|-0===========------------|-------------0===========|
A|-0=======================|-------------------------|-0===========------------|
E|-------------------------|-------------0===========|-------------------------|
     2 0 3                     2 1 3       2 3 4         2 1 4       1 2 4
                                                       p i m a   i p i m a   i

7  | . . , . . | . . , . .   | . . , . . | . . , . .   | . . , . . | . . , . .
e|-----0-2p0-------4-5p4---|--12p9---0---------------|-----0-2p0---2p0---2p0---|
B|---2-------2---3-------3-|-------10--2-------------|---2-------2-----2-----2-|
G|-------------------------|-------------2====------*|*------------------------|
D|-2===========------------|------------------------*|*------------------------|
A|-------------------------|-0===========------------|-0=======================|
E|-------------0===========|-------------------------|-------------------------|
   1  2    3      2 3 4        4 1 2   2 1               2   3
   p i m a   m               p a   m a m i

10 | . . , . . | . . , . .   | . . , . . | . . , . .   | . . , . . | . . , . .
e|-----0-2p0---2p0---2p0---|-----0-2p0-------2-3p2---|-----3-5p3---5p3---5p3---|
B|---1-------1-----1-----1-|---0-------0---0-------0-|---0-------0-----0-----0-|
G|-------------------------|-------------------------|-------------------------|
D|-------------------------|-------------1===========|-2=======================|
A|-0=======================|-2===========------------|-------------------------|
E|-------------------------|-------------------------|-------------------------|
      1   3                  2     3     1   3 4       1   2 4

13 | . . , . . | . . , . .   | . . , . . | . . , . .   | . . , . . | . . , . .
e|-----7-8p7---8p7---8p7---|-----0-2p0---2p0---2p0---|-----5-7p5-------3-----2-|
B|---8-------8-----8-----8-|---2-------2-----2-----2-|---7-------7---5-----3---|
G|-------------------------|-------------------------|-------------------------|
D|-------------------------|-------------------------|-0===========------0=====|
A|-------------------------|-0=======================|-------------4=====------|
E|-0=======================|-------------------------|-------------------------|
     3 2 4                     2   3                     3 1 4     2 4 1   2 1

16 | . . , . . | . . , . .   | . . , . . | . . , . .   | . . ,  . . | . . , . .
e|-----0-2p0---------------|-----5-7p5---7p5---7p5---|----10-12p10-12p10-12p10-|
B|---2-------2-------------|---7-------7-----7-----7-|-------------------------|
G|-------------2===========|-------------------------|---11-------11----11---11|
D|-------------------------|-0=======================|-0=======================|
A|-0===========------------|-------------------------|-------------------------|
E|-------------------------|-------------------------|-------------------------|
     2   3     1             3 1 4                       2 1 4
                                                       p  i m a   i a   i a   i

19 | . . , . . | . . , . .   | . . ,  . . | . . , . .  | . . , . . | . . , . .
e|-----3-5p3---5p3---5p3---|----12-14p12-14p12-14p12-|-----2-3p2-------------2-|
B|---5-------5-----5-----5-|-------------------------|---3-------3---2-0---1---|
G|-------------------------|---12------12----12----12|-------------------------|
D|-------------------------|-------------------------|-0===========0=====0=====|
A|-0=======================|-0=======================|-------------------------|
E|-------------------------|-------------------------|-------------------------|
     3 1 4                      1 2 4                    3 2 4       2     1 3
                             p  i m a   i a   i a   i

22 | . . , . . | . . , . .   | . . , . . | . . , . .   | . . , . . | . . , . .
e|-----3-5p3-------7-8p7---|-----0-2p0-------5-7p5---|---5-2------------------||
B|---0-------0---8-------8-|---2-------2-------------|-------3----------------||
G|-0===========------------|-2===========--6-------6-|---------2-------------*||
D|-------------------------|-------------------------|-0=========4-----------*||
A|-------------7===========|-------------0===========|-------------5=====-----||
E|-------------------------|-------------------------|------------------------||
       2 4     1 3 2 4       1 2   3       2 1 4         4 1 2 1 3 4
                                         p i m a   i   p m   a m i p


Legend
------

left hand fingering below tab
1    - index
2    - middle
3    - ring
4    - little

right hand fingering below left hand fingering
p    - thumb
i    - index
m    - middle
a    - ring

_3_  - triplet (a group of 3 notes in the time of 2)

=    - length of note
p    - pull off

|-----   -----|
|-----   -----|
|*----   ----*|  repeat this
|*----   ----*|    section
|-----   -----|
|-----   -----|


more classical tabs at http://www.classtab.org
Tap to rate this tab
# A B C D E F G H I J K L M N O P Q R S T U V W X Y Z