Song name
# A B C D E F G H I J K L M N O P Q R S T U V W X Y Z

Matthew Good - Double Life tab

____________________________________________________________________________

Sorry about the first upload...
I made a lot of errors, but I am new at this.
____________________________________________________________________________

Here is my revised version:


Song: Double Life
Artist: Matthew Good
Album: Avalanche

____________________________________________________________________________

                                Intro
____________________________________________________________________________
(Play Once)

E -----------------------------------|
B 5/5/5/5/5/5/5/5/3/3/3/3/2/2/2/3/2/3|
G -----------------------------------|
D -----------------------------------|
A -----------------------------------|
E -----------------------------------|
____________________________________________________________________________
(X3)

E -----2/2/2/2/2--------------------|
B 5/5/5---------3/3/3/3/2/2/2/3/2/3-|
G ----------------------------------|
D ----------------------------------|
A ----------------------------------|
E ----------------------------------|
____________________________________________________________________________
(X2)

E -----------------------------------|
B 0/0/0/0/0/0/0/0/3/3/3/3/2/2/2/3/2/3|
G -----------------------------------|
D -----------------------------------|
A -----------------------------------|
E -----------------------------------|
____________________________________________________________________________
(Play Once)

E -----2/2/2/2/2--------------------|
B 5/5/5---------3/3/3/3/2/2/2/3/2/3-|
G ----------------------------------|
D ----------------------------------|
A ----------------------------------|
E ----------------------------------|
____________________________________________________________________________
(Play Once)

E -----------------------------------|
B 0/0/0/0/0/0/0/0/3/3/3/3/2/2/2/3/2/3|
G -----------------------------------|
D -----------------------------------|
A -----------------------------------|
E -----------------------------------|
____________________________________________________________________________
(Play Once)

E -----------------------------------|
B 0/0/0/0/0/0/0/0/3/3/3/3/3/3/3/3/3/3|
G -----------------------------------|
D -----------------------------------|
A -----------------------------------|
E -----------------------------------|
____________________________________________________________________________
(X3)

E -2-----------------|
B 0-5/3/3/3/3--------|
G -------------------|
D -----------2/2/0/0-|
A -------------------|
E -------------------|
____________________________________________________________________________

                             Repeat Intro Once
____________________________________________________________________________
(X9)

E -2-----------------|
B 0-5/3/3/3/3--------|
G -------------------|
D -----------2/2/0/0-|
A -------------------|
E -------------------|
____________________________________________________________________________

                                   Solo
____________________________________________________________________________
(X3)

E -----------------------------------|
B 0/3/5/7/5/3/0/3/5/7/5/3/0/3/5/7/5/3|
G -----------------------------------|
D -----------------------------------|
A -----------------------------------|
E -----------------------------------|
____________________________________________________________________________

(X2)

E ----------------------|
B 0/3/5/7/5/0/3/5/7/5/12|
G ----------------------|
D ----------------------|
A ----------------------|
E ----------------------|
____________________________________________________________________________

               Repeat Solo (Now the Outro) Thrice (Three Times)
____________________________________________________________________________

                                  Lyrics
____________________________________________________________________________
How now are you gone awry?
How now are we back here tonight?
That's all there is
Roll the dice
This is all there is
Roll the dice

How now baby is a little bit enough of it
When you live a double life?

How now are you going to bite both hands?
That's all there is
Roll the dice
This is all there is
Roll the dice

How now baby is a little bit enough of it
When you live a double life?

Well I knew but I've forgotten
Because everyone keeps asking
How come they feel so terrible
If terrible is in fashion
____________________________________________________________________________

Hope there are no mistakes this time if there are please contact me at mewkipian@hotmail.com

Enjoy this tab.
____________________________________________________________________________
Tap to rate this tab
 
# A B C D E F G H I J K L M N O P Q R S T U V W X Y Z