Song name
# A B C D E F G H I J K L M N O P Q R S T U V W X Y Z

Matthew Good - Black Helicopter tab

hahaha. I haven't even listened to this song all the way through yet. I just bought
Music and am sitting here listening to the song with a guitar in hand and tab this intro.
I am horrible at tabbing songs. I can only seem to tab songs just with dumb luck. I'm 
down half a step, so thats the tuning.


D#|-------------------------------------------------------|
A#|-------------------------------------------------------|
F#|-------------------------------------------------------|
C#|--------10-------12------14---14-14-14-14-12-12\10-10--|
G#|-10h12-----10h12---10h12-------------------------------|
D#|-------------------------------------------------------|

D#|-------------------------------------------------------|
A#|-------------------------------------------------------|
F#|-------------------------------------------------------|
C#|--------10-------12------14---14-14-14-14-12-12\10-10--|
G#|-10h12-----10h12---10h12-------------------------------|
D#|-------------------------------------------------------|

D#|----------------------------------------------------------|
A#|----------------------------------------------------------|
F#|----------------------------------------------------------|
C#|--------10-------12------14---17-17-17-17\15-15-15\14-14--|
G#|-10h12-----10h12---10h12----------------------------------|
D#|----------------------------------------------------------|

D#|-------------------------------------------------------|
A#|-------------------------------------------------------|
F#|-------------------------------------------------------|
C#|--------10-------12------14---14-14-14-14-12-12\10-10--|
G#|-10h12-----10h12---10h12-------------------------------|
D#|-------------------------------------------------------|
Tap to rate this tab
# A B C D E F G H I J K L M N O P Q R S T U V W X Y Z