Song name
# A B C D E F G H I J K L M N O P Q R S T U V W X Y Z

Matthew Good - Metal Airplanes tab

Song: Metal Airplanes
Artist: Matthew Good
Album: Hospital Music
Tabbed By: Wade Ouellet
Section: Tab/Chords
Tuning: Eb Ab Db Gb Bb Eb

Intro:
|---3--333---3--333---3--333---------------|
|---3--333---3--333---3--333-------3-------|
|---0--000---0--000---0--000---------0-----|
|---0--000---0--000---0--000-----0-----0---|
|---2--222---2--222---2--222-0-2-----------|
|-3-3--333-3-3--333-3-3--333---------------|

|------------------------------------------|
|---1--111---1--111---1--111-------1-------|
|---2--222---2--222---2--222---------2-----|
|---2--222---2--222---2--222-----------2---|
|-0-0--000-0-0--000-0-0--000-0-2-0---------|
|------------------------------------------|

|---3--333---3--333---3--333---------------|
|---3--333---3--333---3--333-------3-------|
|---0--000---0--000---0--000---------0-----|
|---0--000---0--000---0--000-----0-----0---|
|---2--222---2--222---2--222-0-2-----------|
|-3-3--333-3-3--333-3-3--333---------------|

|----------------------------------------------------------|
|---1--111---1--11-----1--111---1--111---1--111---1--111---|
|---2--222---2--22-----0--000---0--000---0--000---0--000---|
|---2--222---2--22-----2--222---2--222---2--222---2--222---|
|-0-0--000-0-0--00-0-2-3--333-3-3--333-3-3--333-3-3--333---|
|----------------------------------------------------------|

Verse:
G Am G Am C

Chorus:
Em G Em G Am C

Interlude:

|---3--333---3--333---3--333---------------|
|---3--333---3--333---3--333-------3-------|
|---0--000---0--000---0--000---------0-----|
|---0--000---0--000---0--000-----0-----0---|
|---2--222---2--222---2--222-0-2-----------|
|-3-3--333-3-3--333-3-3--333---------------|

|----------------------------------------------------------|
|---1--111---1--11-----1--111---1--111---1--111---1--111---|
|---2--222---2--22-----0--000---0--000---0--000---0--000---|
|---2--222---2--22-----2--222---2--222---2--222---2--222---|
|-0-0--000-0-0--00-0-2-3--333-3-3--333-3-3--333-3-3--333---|
|----------------------------------------------------------|

Verse: same

Chorus:
Em G Em G / Am C Am C Am C G

Bridge:
F Am C G / F Am C G / F Am C

Verse: same

Chorus: same as second

Bridge: same
Tap to rate this tab
 
# A B C D E F G H I J K L M N O P Q R S T U V W X Y Z