Song name
# A B C D E F G H I J K L M N O P Q R S T U V W X Y Z

Matthews Dave Band - Typical Situation tab

t. See http://www.olga.net/faq/ for more information.                     #
#-----------------------------------------------------------------------------#

Date: Fri, 24 Mar 2000 15:53:32 -0500
From: "Scott Taylor" 
Subject: m/matthews_dave_band/typical_situation.tab

Submitted by Scott Taylor - Tallahassee, FL
pabstbr@hotmail.com

"Typical Situation" - Dave Matthews Band

There are basically only two different parts to this song.
Listen to it to figure out where they go. Eat, drink, and be merry.

Intro and Verse - Acoustic - Dave
Em                         Cmaj7
-----------------------------------------------------
-----------------------------------------------------
--4-4--4---4---4-4--4---4----4-4--4---4---4-4--4---4-
-----5---5--------5---5---------5---5--------5---5---
---------------------------3------------3------------
0------------0---------------------------------------

Chorus - Everybody's happy.....

Gadd9  F6   Am   C
-------------------
-H------H----H---1-
0-2----0-2--0-2--0-
0------0----2----2-
------------0----3-
3------1-----------
Tap to rate this tab
 
# A B C D E F G H I J K L M N O P Q R S T U V W X Y Z