Song name
# A B C D E F G H I J K L M N O P Q R S T U V W X Y Z

Matthews Dave - Satellite tab

Help us improve GuitareTab! Take a short survey!
this is the exact, correct way to play satellite...trust me

normal tuning

  Satellite...in my eyes...
e-----------------------------------------
B-----------------------------------------
G-----------------------------------------
D----------8-----6-----5-----3-----6------
A-------6-----4-----3-----------4-----3---
E----4--------------------6---------------



      Bridge(strum chords except the 688 chord)


                                           Oh...Rest high above....
e-------------------------------------------------
B-------------------------------------------------
G------------------------------------------------8-----5--6--8
D----------8-----6-----5--------------------(5)--8--6--5--6--8
A-------6-----4-----3--------------4--6--8-------6--6--3--4--6
E----4--------------------4--6--8-------------------4--------
Related for Satellite tab