Song name
# A B C D E F G H I J K L M N O P Q R S T U V W X Y Z

Matthews Dave - Lie In Our Graves tab

Intro/Verse
e---2------------------------------
b-3-3-3----------------------------
g-2-2-2----------------2-----------
d-0-0---------0--2--4--------2-----
a--------4--2-------------2--------
E-------------------------3--------

Transition:
e--2-2-2-------------------------------
b--3-3-3----------1--1--1--0h2--4------
g--2-2-2----4--2--2--2--2---------4--2-
d---------0-------2--2--2--------------
a--------------------------------------
E--------------------------------------

Long Jam:
e---------------------------------   --------------------------------
b---------------------------------   --------------------------------
g--11--9--7----4-4--6-------------   -12---7---6--2--2--4------------
d---------------------------------   --------------------------------
a---------------------------------   --------------------------------
E--10--9--7----3-3--5-------------   -12---7---5--2--2--3------------
Tap to rate this tab
# A B C D E F G H I J K L M N O P Q R S T U V W X Y Z