Song name
# A B C D E F G H I J K L M N O P Q R S T U V W X Y Z

Maurice Ravel - Pavane De La Belle Au Bois Dormant Pavane Of The Sleeping Beauty tab

Should be played slowly and expressively. (quarter note=about 67)


  +    +     +    +      +    +    +     +
E----8-12------10------|----8-12------10------|
B-10--------------8----|-10--------------8----|
G------12----10---9-10-|------12---10----9-10-|
D-7--------------------|-7--------------------|
A----------------------|----------------------|
E----------------------|----------------------|

  +   +    +   +      +   +   +   +
E----------7-8------|-0---------------|
B-10----10-----8-10-|-----------------|
G----------5---7----|-9---------------|
D-7---9-------------|-----------------|
A-------------------|-----7-------7---|
E-------------------|---------0-------|

  +     +    +    +       +     +    +    +
E-12-10-----------12-10-|-12-10-----------12-10-|
B-------10-----12-------|-------10-----12-------|
G-----------------------|-----------------------|
D-12----12---12---12----|-12----12---12---12----|
A-8-----9----10---9-----|-8-----9----10---9-----|
E-0---------------------|-0---------------------|

  +     +     +    +       +    +     +   +
E-12-10------------------|--------------------|
B-------10-12-13---12-13-|-8----10------------|
G------------------------|--------------------|
D-12----12----12---12----|-9----10------------|
A-8-----9-----10---9-----|-8----7-----0-------|
E-0----------------------|--------------------|

  +     +     +     +       +     +     +     +
E-12-10-12-13-15-------17-|-12-10-12-13-15-------17-|
B-------------17----15----|-13----12----------------|
G-------------------------|-------------------14----|
D-------------------------|-------------------------|
A-------------------------|-------------15----------|
E-------------------------|-------------------13----|

                          (5/4):
  +     +     +     +      +   +   +    +   +
E-12-10-12-13-10------12-|-7----------------5-7-|
B-12----12----10----8----|---8--------7-8-------|
G------------------------|-7---7---9--------5---|
D------------------------|-----9---11-----------|
A-10----------8----------|-7---0----------------|
E-------8-----------7----|----------------------|

4/4:
  +   +    +    +       +   +    +    +
E-5-8-12-----10-------|-5-8-12-----10------|
B-6---0---------8-----|-6---0---------8----|
G-5---10---10---10----|-5---10---10---10---|
D-0--------7-------9--|-0--------7-------9-|
A---------------------|--------------------|
E---------------------|--------------------|

  +   +    +    +       +   +    +    +
E-5-----5--7--8-------|---------------------|
B-6---6---------8--10-|---------------------|
G-5---4----10---10----|-9-------------------|
D-0--------7-------9--|-9-------------------|
A---------------------|-----7---------7-----|
E---------------------|----------0----------|

  +     +    +    +       +     +    +    +
E-12-10-----------12-10-|-12-10-----------12-10-|
B-------10-----12-------|-------10-----12-------|
G-----------------------|-----------------------|
D-12----12---12---12----|-12----12---12---12----|
A-8-----9----10---9-----|-8-----9----10---9-----|
E-0---------------------|-0---------------------|

  +     +     +    +       +   +   +   +
E-12-10------------------|-----------------||
B-------10-12-13---12-13-|-8-------10------||
G------------------------|-----------------||
D-12----12----12---12----|-9-------10------||
A-8-----9-----10---9-----|-8-------0-------||
E-0----------------------|-----0-----------||

Tap to rate this tab
 
# A B C D E F G H I J K L M N O P Q R S T U V W X Y Z