Maverick Sabre - Let Me Go tab

Capo on 1

Intro and Chorus:
                                                                                         
                    Song order:

|----0-0-0--x-x---------x-x--2-2-2--x-x--1-1-1--x-x--|         Intro       x2
|----1-1-1--x-x--5-5-5--x-x--4-4-4--x-x--3-3-3--x-x--|         Verse       x4
|----2-2-2--x-x--5-5-5--x-x--2-2-2--x-x--1-1-1--x-x--|         Chorus      x4
|----2-2-2--x-x--5-5-5--x-x--4-4-4--x-x--3-3-3--x-x--|         Verse       x4
|----0-0-0--x-x--3-3-3--x-x--2-2-2--x-x--1-1-1--x-x--|         Chorus      x4
|-----------x-x----------x-x---------x-x---------x-x-|         Bridge      x4
                                                                                         
                     Chorus    x4
         Verse:                                                                          
                  Verse      x4


|---------------------------------------------------|
|---------------------------------------------------|
|---------------------------------------------------|
|----2-----------5-----------4-----------3----------|
|----0-----------3-----------2-----------1----------|
|---------------------------------------------------|
   {Let ring}

Bridge:


|-----5----------------------2----------1-----------|
|-----6----------5-----------4----------3-----------|
|-----7----------5-----------2----------1-----------|    x3
|-----7----------5-----------4----------3-----------|
|-----5----------3-----------2----------1-----------|
|---------------------------------------------------|
   {Let ring}


|-----5----------------------2----------------------|
|-----6----------5-----------4----------------------|
|-----7----------5-----------2----------------------|
|-----7----------5-----------4----------------------|
|-----5----------3-----------2----------------------|
|---------------------------------------------------|
     {Let ring}
Tap to rate this tab
 
# A B C D E F G H I J K L M N O P Q R S T U V W X Y Z