Song name
# A B C D E F G H I J K L M N O P Q R S T U V W X Y Z

Maverick Sabre - I Need tab

-----------------------------------------------------------------------------
			     I NEED - Maverick Sabre
-----------------------------------------------------------------------------

Tabbed by: Matt Reid
Email: mattyreid808@hotmail.com

Tuning: Standard

        Dm7                  Am7                Em7
e|-------5--------5------------------------------7-------7-------7-------7--|
B|-------6--------6-----------5-------5----------8-------8-------8-------8--|
G|-------5--------5-----------5-------5----------7-------7-------7-------7--|
D|-------7--------7-----------5-------5----------9-------9-------9-------9--|
A|---5--------5---------------7-------7------7-------7-------7-------7------|
E|------------------------5-------5-----------------------------------------|


Listen to the song for timings. Play all the way through.

************************************

| /   slide up
| \   slide down
| h   hammer-on
| p   pull-off
| ~   vibrato
| +   harmonic
| x   Mute note
| b   Bend
| pb  Pre-bend
| br  Bend release
| pbr Pre-bend release
| brb Bend release bend

************************************
Tap to rate this tab
# A B C D E F G H I J K L M N O P Q R S T U V W X Y Z