Song name
# A B C D E F G H I J K L M N O P Q R S T U V W X Y Z

Mayday Parade - Still Breathing tab

Eh..this is my first tab. :/
So yeah, don't be rude(:

-intro-

e|---------9----------------------------------------------|
B|--------------------------------------------------------|
G|-----------------1--------------------------------------| (x how many times)
D|--------------------3-4---------1---------3-4-3-1-3-1---|
A|---8---------4-------------4---------4------------------|
E|-6---9-6---2---2---------4---4-----4---4----------------|
                                                    Give me any reason. ..

-PreChorus-

e|--------------------------------|
B|--------------------------------|
G|--------------------------------|
D|--------------------------------|(x 2)
A|-44444444-66666666-888888888888-|
E|-22222222-44444444-666666666666-|
   ........ ........ ............
  Times racing. ..

e|------------------------------|
B|------------------------------|
G|------------------------------|
D|----------66666666------------|
A|-44444444-66666666------------|
E|-22222222-44444444------------|
  I'm still breathing.


-Chorus-

e|-----------------------------------------------------|
B|-----------------------------------------------------|
G|-666666666666----------------------------------------|
D|-666666666666-666666666666-888888888888-444444444444-|
A|-444444444444-666666666666-888888888888-444444444444-|
E|--------------444444444444-666666666666-222222222222-|
  It's hard to be a man. ..


e|------------------------------------------------------------------|
B|------------------------------------------------------------------|
G|-6666666666---8-8-8-8-8-8-8-8-8-8---10-10-10-10-10-10-10-10-10-10-|
D|-6666666666---x-x-x-x-x-x-x-x-x-x---x--x--x--x--x--x--x--x--x--x--|
A|-4444444444---6-6-6-6-6-6-6-6-6-6---8--8--8--8--8--8--8--8--8--8--|
E|------------------------------------------------------------------|
  Cause im standing here alone. ..

e|-------------------------------------|
B|-------------------------------------|
G|-------------------------------------|
D|44444444-66666666-44444444-66666666--|
A|44444444-66666666-44444444-66666666--|
E|22222222-44444444-22222222-44444444--|
 . ..Heart from beating. ..


(Repeat intro.)

(Repeat PreChorus)

(Repeat Chorus)

e|---------------|
B|---------------|
G|-6~------------|
D|-6~------------|
A|-4~------------|
E|---------------|


-Bridge-
(with the piano)

-Solo-

e|--------------------------------------------------------|
B|-11-------9---------------------------------------------|
G|----10-11----10-11-10-------------------11-13-10--------|
D|----------------------11-13----10-11-13-----------------|
A|--------------------------------------------------------|
E|--------------------------------------------------------|

e|------------11-0-9-0-8----------------------------------|
B|-11-------9------------7\9\11\13\14~--------------------|
G|----10-11-----------------------------------------------|
D|--------------------------------------------------------|
A|--------------------------------------------------------|
E|--------------------------------------------------------|

e|---------------|
B|---------------|
G|-6666666666666-|
D|-6666666666666-|
A|-4444444444444-|
E|---------------|

(Chorus)

End with:

e|---------------|
B|---------------|
G|-6~------------|
D|-6~------------|
A|-4~------------|
E|---------------|
Tap to rate this tab
# A B C D E F G H I J K L M N O P Q R S T U V W X Y Z