Song name
# A B C D E F G H I J K L M N O P Q R S T U V W X Y Z

Mayday Parade - Happy Endings Are Stories That Havent Ended Yet tab

-----------------------------------------------------------------------------|
HAPPY ENDINGS ARE STORIES THAT HAVEN'T ENDED YET - Mayday Parade
-----------------------------------------------------------------------------|
Tabbed by: James Godfhrey L Saguid
E-mail: james.saguid@yahoo.com

Tuning: Standard Tuning, Capo 1

INTRO / VERSE                                 | "PRE-INTERLUDE"
e|--------------3-----2-----0-----2-----5-----|----3------------------------|
B|--3-----2-----3-----3-----3-----3-----3-----|----3-------3----------------|
G|--2-x8--2-x8--0-x3--0-x5--0-x3--0-x3--0-x2--|----0-------2----------------|
D|--0-----0-----0-----0-----0-----0-----0-----|----0-------2----------------|
A|--------4-----------------------------------|----2-------0----------------|
E|--------------------------------------------|----3------------------------|
                                                   ~       ~
____________________________________________________________________________

INTERLUDE/INSTRUMENTAL/1st CHORUS
e|-------0-2-0-2-3-|-5---5-3-2-0-|-------0-2-3-|-2--0-2-0-----|-------------|
B|-3-2-3-----------|-------------|-3---3-------|----------3-2-|-0---0---0-2-|
G|-----------------|-------------|-------------|--------------|-------2-----|
D|-0---------------|-------------|-------------|--------------|-------------|
A|-----------------|-4-----------|-2-----------|-0------------|-------------|
E|-----------------|-------------|-------------|--------------|-3-----------|
   ~                 ~             ~             ~              ~


e|----------|-----------------|----------------|
B|-2h3------|-0---0-2-3-2-3/5-|-5--3-3(\2-2h3)-|
G|------2-2-|---2-------------|----------------|
D|-0--------|-----------------|----------------|
A|----------|-----------------|-0--------------|
E|----------|-3---------------|----------------|
   ~          ~                 ~

____________________________________________________________________________

LAST CHORUS
e|--------------------------------------------------------------------------|
B|--3-----3------3------3------3------3------3------3-----------------------|
G|--2-x8--2-x8---2-x8---2-x8---2-x8---2-x8---2-x8---2-x8--------------------|
D|--0-----2------0------2------0------0------0------2-----------------------|
A|--------0------2------0------0-------------0------0-----------------------|
E|-----------------------------3-------------3------------------------------|

____________________________________________________________________________

OUTRO
E|-------0-|-------0-|-------0-|-2-3-0-2-|-------0-|-------0-|-------0------|
B|-3---3---|-2---3---|-3---3---|---------|-3---3---|-3---3---|-3---3--------|
G|---2-----|---2-----|---2-----|---------|---2-----|---2-----|---2----------|
D|-0-------|---------|---------|---------|---------|-0-------|--------------|
A|---------|-4-------|-2-------|-0-------|---------|---------|--------------|
E|---------|---------|---------|---------|-3-------|---------|-3------------|
   ~         ~         ~         ~         ~         ~         ~


e|--(0)-3/5-3-|-2-5---0-|---5---0-|---5---0-|-----3/5-3-|-2-----------------|
B|---3--------|-----3---|-2---3---|-3---3---|---3-------|-------------------|
G|-2----------|---------|---------|---------|-2---------|-------------------|
D|------------|-0-------|---------|---------|-----------|-0-----------------|
A|-0----------|---------|-4-------|-2-------|-----------|-------------------|
E|------------|---------|---------|---------|-3---------|-------------------|
   ~            ~         ~         ~         ~           ~





************************************

| /   slide up
| \   slide down
| h   hammer-on
| p   pull-off
| ~   vibrato
| +   harmonic
| x   Mute note
| b   Bend
| pb  Pre-bend
| br  Bend release
| pbr Pre-bend release
| brb Bend release bend

************************************
Tap to rate this tab
# A B C D E F G H I J K L M N O P Q R S T U V W X Y Z