Song name
# A B C D E F G H I J K L M N O P Q R S T U V W X Y Z

Mayday Parade - Nothing You Can Live Without Nothing You Can Do About chords

Highlighted       Show chord diagrams
Hey there! Hope you enjoy this! Let me know if you disagree on anything :)
I tried to fit in the important tabs at certain parts too so sorry if it's a little jumbled.


Standard tuning (Woo!)

What are we good for? I think you know
What are we good for? I think you know

Intro
e-|------------------|--------------------|------------------|--------------|
B-|------------------|--------------------|------------------|--------------|
G-|-10---8--11-10-10-|-10--10-8--11-10-10-|-10---8--11-10-10-|-10-x-8-8-6-6-|
D-|------------------|--------------------|------------------|--------------|
A-|-8----6--9--8--8--|-8---8--6--9--8--8--|-8----6--9--8--8--|-8--x-6-6-4-4-|
E-|------------------|--------------------|------------------|--------------|

e-|------------------|----------------|
B-|------------------|----------------|
G-|-10---8--11-8--8--|-8---8--8--6--6-|
D-|------------------|----------------|
A-|-8----6--9--6--6--|-6---6--6--4--4-|
E-|------------------|----------------|


Verse 1

F#                  C#                             F#
In seven years only one goodbye that meant much to me
                            A#m      G#                 F#
Down and out and I'm fading fast, I can't keep it all together 
                   C#                                         F#
If every fairy tale could thread the knot and take me here to there
                            A#m        G#
Or grab my hand and tell me what's the difference between


Prechorus

F#          C# 
Heaven and Hell,
                G#
'Cause I can't tell
             G#
You'll be my angel through it all
F#              C#
Dressed as a girl,
               A#m
You'll be part of this world
       G#               F#
We'll love like fools again


Chorus

F#                         C#
I wanna thank you for your card,
                        G#
'Cause Hallmark says it all
               A#m     G#            F#
I'm sorry if I keep on trying to forget
                                  C#
If you really love me then write about
                            G#
How you never wanna live without
                    A#m      G#            F#
This broken boy who keeps on trying to forget


Intro Riff
e-|------------------|--------------------|
B-|------------------|--------------------|
G-|-10---8--11-10-10-|-10--10-8--11-10-10-|
D-|------------------|--------------------|
A-|-8----6--9--8--8--|-8---8--6--9--8--8--|
E-|------------------|--------------------|
                            (Looks a lot..)


Verse 2

F#               C#
Looks a lot like home,
                  F#
A better place to be
                      A#m     G#
A terrifying feeling, I can't see you


                      e-|-9-9-9-9-|-9-9-9-9-|
                      B-|-9-9-9-9-|-9-9-9-9-|
                      G-|---------|---------|
                      D-|---------|---------|
                      A-|---------|---------|
             F#       E-|---------|---------|
We're always off and then on again


              e-|-12--12--12--12--|-12---12/10/9--11--9~-|
              B-|-15^-15^-15^-15^-|-15^------------------|
              G-|-----------------|----------------------|
              D-|-----------------|----------------------|
              A-|-----------------|----------------------|
              E-|-----------------|----------------------|
     C#                                                   F#
They say that   I  might  be  cursed  for    a    while
            
     e-|-9---9---9---9---|-9---9---9---9---|
     B-|-12--12^-12^-12^-|-12--12^-12^-12^-|
     G-|-----------------|-----------------|
     D-|-----------------|-----------------| 
     A-|-----------------|-----------------|
     E-|-----------------|-----------------|
F#
And  I   feel   it   setting  in,
A#m              G#
It's in my head again
                   F#
Watch me forget my life


Pre-chorus

F#          C#                   G#
How does it feel when you're all alone
        G#               F#
I won't answer when you call
                C#                A#m
You don't wanna hear the things I think about,
    G#                      F#
The things I can't live without


Chorus

F#                         C#
I wanna thank you for your card,
                       G#
'Cause silence says it all
               A#m     G#           F#
I'm sorry if I keep on trying to forget
                                 C#
If you really love me then write about
                             G#
How you never wanna live without
                    A#m      G#             C#
This broken boy who keeps on trying to forget

              G#                A#m               F# 
Trying to forget, trying to forget, trying to forget (whoaa)

C#                    G#  
I'm trying to find my way home
              A#m                             F#
Well, there's nothing worse than walking by myself
        C#                          G#           
For I'm tired of believing we could ever heal these broken dreams
     A#m                                     F#-F#-F#-F#(x3)
When you're still sleeping in someone else's bed


e-|-------------------------|--------------------------|
B-|-------------------------|--------------------------|
G-|-10-10-10-10-10-10-10-10-|-10-10-10-10-10^10^10^10^-|
D-|-------------------------|--------------------------|  (bend up)
A-|-8--8--8--8--8--8--8--8--|-8--8--8--8--8^-8^-8^-8^--|  
E-|-------------------------|--------------------------|
                                (Alright, here we go!)


Chorus

F#                          C#
I wanna thank you for your card,
                        G#
'Cause nothing says it all
               A#m     G#            F#
I'm sorry if I keep on trying to forget
                                   C#
If you really love me then write about
                             G#
How you never wanna live without
                     A#m      G#             F#
This Georgia boy who keeps on trying to forget


Outro

F#                    C#
What are we good for? I think you know
A#m                   G#
What are we good for? I think you know
F#                    C#
What are we good for? I think you know
A#m                   G#
What are we good for? I think you know
Tap to rate this tab
# A B C D E F G H I J K L M N O P Q R S T U V W X Y Z