Song name
# A B C D E F G H I J K L M N O P Q R S T U V W X Y Z

Mayhem - Freezing Moon tab

                                Freezing Moon                                   


                                                                          Mayhem
Euronymous



     Q    E  E  E  E  Q       E  E  E  E  Q    E  E   
E||-------0----------------|--0----------------0--L--|
B||----------0-------------|-----0----------------0--|
G||-------------0--L-------|--------0--L-------------|
D||--2-------------2--2----|-----------2--2----------|
A||--2----------------2----|--------------2----------|
E||--0----------------0----|--------------0----------|


  E  E  E  E  E  E  E  E     Q    E  E  E  E  Q       E  E  E  E  Q    E  E   
--------------------------|-------0----------------|--0----------------0--L--|
--L-----------------------|----------0-------------|-----0----------------0--|
--0--L--------------------|-------------0--L-------|--------0--L-------------|
-----2--7--8--8--7--5--3--|--2-------------2--2----|-----------2--2----------|
--------7--8--8--7--5--3--|--2----------------2----|--------------2----------|
--------5--6--6--5--3--1--|--0----------------0----|--------------0----------|


  E  E  E  E  E  E  E  E     Q    E  E  E  E  Q       E  E  E  E  Q    E  E   
--------------------------|-------0----------------|--0----------------0--L--|
--L-----------------------|----------0-------------|-----0----------------0--|
--0--L--------------------|-------------0--L-------|--------0--L-------------|
-----2--7--8--8--7--5--3--|--2-------------2--2----|-----------2--2----------|
--------7--8--8--7--5--3--|--2----------------2----|--------------2----------|
--------5--6--6--5--3--1--|--0----------------0----|--------------0----------|


  E  E  E  E  E  E  E  E     Q    E  E  E  E  Q       E  E  E  E  Q    E  E   
--------------------------|-------0----------------|--0----------------0--L--|
--L-----------------------|----------0-------------|-----0----------------0--|
--0--L--------------------|-------------0--L-------|--------0--L-------------|
-----2--7--8--8--7--5--3--|--2-------------2--2----|-----------2--2----------|
--------7--8--8--7--5--3--|--2----------------2----|--------------2----------|
--------5--6--6--5--3--1--|--0----------------0----|--------------0----------|


  E  E  E  E  E  E  E  E     Q    E  E  E  E  Q       E  E  E  E  Q    E  E   
--------------------------|-------0----------------|--0----------------0--L--|
--L-----------------------|----------0-------------|-----0----------------0--|
--0--L--------------------|-------------0--L-------|--------0--L-------------|
-----2--7--8--8--7--5--3--|--2-------------2--2----|-----------2--2----------|
--------7--8--8--7--5--3--|--2----------------2----|--------------2----------|
--------5--6--6--5--3--1--|--0----------------0----|--------------0----------|


  E  E  E  E  E  E  E  E     Q    E  E  E  E  Q       E  E  E  E  Q    E  E   
--------------------------|-------0----------------|--0----------------0--L--|
--L-----------------------|----------0-------------|-----0----------------0--|
--0--L--------------------|-------------0--L-------|--------0--L-------------|
-----2--7--8--8--7--5--3--|--2-------------2--2----|-----------2--2----------|
--------7--8--8--7--5--3--|--2----------------2----|--------------2----------|
--------5--6--6--5--3--1--|--0----------------0----|--------------0----------|


  E  E  E  E  E  E  E  E     Q    E  E  E  E  Q       E  E  E  E  Q    E  E   
--------------------------|-------0----------------|--0----------------0--L--|
--L-----------------------|----------0-------------|-----0----------------0--|
--0--L--------------------|-------------0--L-------|--------0--L-------------|
-----2--7--8--8--7--5--3--|--2-------------2--2----|-----------2--2----------|
--------7--8--8--7--5--3--|--2----------------2----|--------------2----------|
--------5--6--6--5--3--1--|--0----------------0----|--------------0----------|


  E  E  E  E  E  E  E  E     Q    E  E  E  E  Q       E  E  E  E  Q    E  E   
--------------------------|-------0----------------|--0----------------0--L--|
--L-----------------------|----------0-------------|-----0----------------0--|
--0--L--------------------|-------------0--L-------|--------0--L-------------|
-----2--7--8--8--7--5--3--|--2-------------2--2----|-----------2--2----------|
--------7--8--8--7--5--3--|--2----------------2----|--------------2----------|
--------5--6--6--5--3--1--|--0----------------0----|--------------0----------|


  E  E  E  E  E  E  E  E     E  S S E  Q    E  Q      
--------------------------|--------------------------|
--L-----------------------|--------------------------|
--0--L--------------------|--------------------------|
-----2--7--8--8--7--5--3--|------------5----5--5\----|
--------7--8--8--7--5--3--|--2--2-2-2--7----7--7\----|
--------5--6--6--5--3--1--|--0--0-0-0--0----0--0-----|


  E  S S E  Q    E  Q        E  S S E  Q    E  Q      
--------------------------|--------------------------|
--------------------------|--------------------------|
--------------------------|--------------------------|
------------8----8--8\----|------------5----5--5\----|
--2--2-2-2--6----6--6\----|--2--2-2-2--7----7--7\----|
--0--0-0-0--6----6--6\----|--0--0-0-0--0----0--0-----|


  E  S S E   Q     E   Q        E  S S E  Q    E  Q      
-----------------------------|--------------------------|
-----------------------------|--------------------------|
-----------------------------|--------------------------|
------------10----10--10\----|------------5----5--5\----|
--2--2-2-2---8-----8---8\----|--2--2-2-2--7----7--7\----|
--0--0-0-0---8-----8---8\----|--0--0-0-0--0----0--0-----|


  E  S S E  Q    E  Q        E  S S E  Q    E  Q      
--------------------------|--------------------------|
--------------------------|--------------------------|
--------------------------|--------------------------|
------------8----8--8\----|------------5----5--5\----|
--2--2-2-2--6----6--6\----|--2--2-2-2--7----7--7\----|
--0--0-0-0--6----6--6\----|--0--0-0-0--0----0--0-----|


  E  S S E   Q     E   Q        E  S S E  Q    E  Q      
-----------------------------|--------------------------|
-----------------------------|--------------------------|
-----------------------------|--------------------------|
------------10----10--10\----|------------5----5--5\----|
--2--2-2-2---8-----8---8\----|--2--2-2-2--7----7--7\----|
--0--0-0-0---8-----8---8\----|--0--0-0-0--0----0--0-----|


  E  S S E  Q    E  Q        E  S S E  Q    E  Q      
--------------------------|--------------------------|
--------------------------|--------------------------|
--------------------------|--------------------------|
------------8----8--8\----|------------5----5--5\----|
--2--2-2-2--6----6--6\----|--2--2-2-2--7----7--7\----|
--0--0-0-0--6----6--6\----|--0--0-0-0--0----0--0-----|


  E  S S E   Q     E   Q        E  S S E  Q    E  Q      
-----------------------------|--------------------------|
-----------------------------|--------------------------|
-----------------------------|--------------------------|
------------10----10--10\----|------------5----5--5\----|
--2--2-2-2---8-----8---8\----|--2--2-2-2--7----7--7\----|
--0--0-0-0---8-----8---8\----|--0--0-0-0--0----0--0-----|


  E  S S E  Q    E  Q        E  S S E  Q    E  Q      
--------------------------|--------------------------|
--------------------------|--------------------------|
--------------------------|--------------------------|
------------8----8--8\----|------------5----5--5\----|
--2--2-2-2--6----6--6\----|--2--2-2-2--7----7--7\----|
--0--0-0-0--6----6--6\----|--0--0-0-0--0----0--0-----|


  E  S S E   Q     E   Q        S S S S E  E  S S S S E  E   
-----------------------------|------------------------------|
-----------------------------|------------------------------|
-----------------------------|------------------------------|
------------10----10--10\----|------------------------------|
--2--2-2-2---8-----8---8\----|----------6--7----------6--7--|
--0--0-0-0---8-----8---8\----|--0-0-0-0-6--7--0-0-0-0-6--7--|


  S S S S E  E  S S S S E  E     S S S S E  E  S S S S E  E   
------------------------------|------------------------------|
------------------------------|------------------------------|
------------------------------|------------------------------|
------------------------------|------------------------------|
----------6--7----------6--7--|----------6--7----------6--7--|
--0-0-0-0-6--7--0-0-0-0-6--7--|--0-0-0-0-6--7--0-0-0-0-6--7--|


  S S S S E  E  S S S S E  E     S S S S S S S S S S S S S S S S  
------------------------------|----------------------------------|
------------------------------|----------------------------------|
------------------------------|----------------------------------|
------------------------------|----------------------------------|
----------6--7----------6--7--|--2-2-2-2-2-2-2-2-8-8-8-8-8-8-8-8-|
--0-0-0-0-6--7--0-0-0-0-6--7--|--0-0-0-0-0-0-0-0-6-6-6-6-6-6-6-6-|


  S S S S S S S S S S S S S S S S    S S S S S S S S S S S S S S S S  
----------------------------------|----------------------------------|
----------------------------------|----------------------------------|
----------------------------------|----------------------------------|
--9-9-9-9-9-9-9-9-----------------|----------------------------------|
--7-7-7-7-7-7-7-7-8-8-8-8-8-8-8-8-|--2-2-2-2-2-2-2-2-8-8-8-8-8-8-8-8-|
------------------6-6-6-6-6-6-6-6-|--0-0-0-0-0-0-0-0-6-6-6-6-6-6-6-6-|


  S S S S S S S S S S S S S S S S    S S S S S S S S S S S S S S S S  
----------------------------------|----------------------------------|
----------------------------------|----------------------------------|
----------------------------------|----------------------------------|
--9-9-9-9-9-9-9-9-----------------|----------------------------------|
--7-7-7-7-7-7-7-7-8-8-8-8-8-8-8-8-|--2-2-2-2-2-2-2-2-8-8-8-8-8-8-8-8-|
------------------6-6-6-6-6-6-6-6-|--0-0-0-0-0-0-0-0-6-6-6-6-6-6-6-6-|


  S S S S S S S S S S S S S S S S    S S S S S S S S S S S S S S S S  
----------------------------------|----------------------------------|
----------------------------------|----------------------------------|
----------------------------------|----------------------------------|
--9-9-9-9-9-9-9-9-----------------|----------------------------------|
--7-7-7-7-7-7-7-7-8-8-8-8-8-8-8-8-|--2-2-2-2-2-2-2-2-8-8-8-8-8-8-8-8-|
------------------6-6-6-6-6-6-6-6-|--0-0-0-0-0-0-0-0-6-6-6-6-6-6-6-6-|


  S S S S S S S S S S S S S S S S    S S S S S S S S S S S S S S S S  
----------------------------------|----------------------------------|
----------------------------------|----------------------------------|
----------------------------------|----------------------------------|
--9-9-9-9-9-9-9-9-----------------|----------------------------------|
--7-7-7-7-7-7-7-7-8-8-8-8-8-8-8-8-|--2-2-2-2-2-2-2-2-2-2-2-2-2-2-2-2-|
------------------6-6-6-6-6-6-6-6-|--0-0-0-0-0-0-0-0-0-0-0-0-0-0-0-0-|


  S S S S S S S S S S S S S S S S    S S S S S S S S S S S S S S S S  
----------------------------------|----------------------------------|
----------------------------------|----------------------------------|
----------------------------------|----------------------------------|
------------------9-9-9-9---------|----------------------------------|
--8-8-8-8-8-8-8-8-7-7-7-7-8-8-8-8-|--2-2-2-2-2-2-2-2-2-2-2-2-2-2-2-2-|
--6-6-6-6-6-6-6-6---------6-6-6-6-|--0-0-0-0-0-0-0-0-0-0-0-0-0-0-0-0-|


  S S S S S S S S S S S S S S S S    S S S S S S S S S S S S S S S S  
----------------------------------|----------------------------------|
----------------------------------|----------------------------------|
----------------------------------|----------------------------------|
------------------9-9-9-9---------|----------------------------------|
--8-8-8-8-8-8-8-8-7-7-7-7-8-8-8-8-|--2-2-2-2-2-2-2-2-2-2-2-2-2-2-2-2-|
--6-6-6-6-6-6-6-6---------6-6-6-6-|--0-0-0-0-0-0-0-0-0-0-0-0-0-0-0-0-|


  S S S S S S S S S S S S S S S S    S S S S S S S S S S S S S S S S  
----------------------------------|----------------------------------|
----------------------------------|----------------------------------|
----------------------------------|----------------------------------|
------------------9-9-9-9---------|----------------------------------|
--8-8-8-8-8-8-8-8-7-7-7-7-8-8-8-8-|--2-2-2-2-2-2-2-2-2-2-2-2-2-2-2-2-|
--6-6-6-6-6-6-6-6---------6-6-6-6-|--0-0-0-0-0-0-0-0-0-0-0-0-0-0-0-0-|


  S S S S S S S S S S S S S S S S    S S S S S S S S S S S S S S S S  
----------------------------------|----------------------------------|
----------------------------------|----------------------------------|
----------------------------------|----------------------------------|
------------------9-9-9-9---------|----------------------------------|
--8-8-8-8-8-8-8-8-7-7-7-7-8-8-8-8-|--------------------------8-8-----|
--6-6-6-6-6-6-6-6---------6-6-6-6-|--0-0-0-0-7-7-0-0-6-6-6-6-----6-6-|


  S S S S S S S S S S S S S S S S    S S S S S S S S S S S S S S S S  
----------------------------------|----------------------------------|
----------------------------------|----------------------------------|
----------------------------------|----------------------------------|
----------9-9---------------------|----------------------------------|
--7-7-7-7-----7-7---------7-7-----|--------------------------8-8-----|
------------------6-6-6-6-----6-6-|--0-0-0-0-7-7-0-0-6-6-6-6-----6-6-|


  S S S S S S S S S S S S S S S S    S S S S S S S S S S S S S S S S  
----------------------------------|----------------------------------|
----------------------------------|----------------------------------|
----------------------------------|----------------------------------|
----------9-9---------------------|----------------------------------|
--7-7-7-7-----7-7---------7-7-----|--------------------------8-8-----|
------------------6-6-6-6-----6-6-|--0-0-0-0-7-7-0-0-6-6-6-6-----6-6-|


  S S S S S S S S S S S S S S S S    S S S S S S S S S S S S S S S S  
----------------------------------|----------------------------------|
----------------------------------|----------------------------------|
----------------------------------|----------------------------------|
----------9-9---------------------|----------------------------------|
--7-7-7-7-----7-7---------7-7-----|--------------------------8-8-----|
------------------6-6-6-6-----6-6-|--0-0-0-0-7-7-0-0-6-6-6-6-----6-6-|


  S S S S S S S S S S S S Q        S S S S S S S S S S S S S S S S  
--------------------------------|----------------------------------|
--------------------------------|----------------------------------|
--------------------------------|----------------------------------|
----------9-9-------------5\----|----------------------------------|
--7-7-7-7-----7-7---------7\----|--2-2-2-2-2-2-2-2-2-2-2-2-2-2-2-2-|
------------------6-6-6-6-------|--0-0-0-0-0-0-0-0-0-0-0-0-0-0-0-0-|


  S S S S S S S S S S S S S S S S    S S S S S S S S S S S S S S S S  
----------------------------------|----------------------------------|
----------------------------------|----------------------------------|
----------------------------------|----------------------------------|
------------------9-9-9-9---------|----------------------------------|
--8-8-8-8-8-8-8-8-7-7-7-7-8-8-8-8-|--2-2-2-2-2-2-2-2-2-2-2-2-2-2-2-2-|
--6-6-6-6-6-6-6-6---------6-6-6-6-|--0-0-0-0-0-0-0-0-0-0-0-0-0-0-0-0-|


  S S S S S S S S S S S S S S S S    S S S S S S S S S S S S S S S S  
----------------------------------|----------------------------------|
----------------------------------|----------------------------------|
----------------------------------|----------------------------------|
------------------9-9-9-9---------|----------------------------------|
--8-8-8-8-8-8-8-8-7-7-7-7-8-8-8-8-|--2-2-2-2-2-2-2-2-2-2-2-2-2-2-2-2-|
--6-6-6-6-6-6-6-6---------6-6-6-6-|--0-0-0-0-0-0-0-0-0-0-0-0-0-0-0-0-|


  S S S S S S S S S S S S S S S S    S S S S S S S S S S S S S S S S  
----------------------------------|----------------------------------|
----------------------------------|----------------------------------|
----------------------------------|----------------------------------|
------------------9-9-9-9---------|----------------------------------|
--8-8-8-8-8-8-8-8-7-7-7-7-8-8-8-8-|--2-2-2-2-2-2-2-2-2-2-2-2-2-2-2-2-|
--6-6-6-6-6-6-6-6---------6-6-6-6-|--0-0-0-0-0-0-0-0-0-0-0-0-0-0-0-0-|


  S S S S S S S S S S S S S S S S    S S S S S S S S S S S S S S S S  
----------------------------------|----------------------------------|
----------------------------------|----------------------------------|
----------------------------------|----------------------------------|
------------------9-9-9-9---------|----------------------------------|
--8-8-8-8-8-8-8-8-7-7-7-7-8-8-8-8-|--2-2-2-2-2-2-2-2-8-8-8-8-8-8-8-8-|
--6-6-6-6-6-6-6-6---------6-6-6-6-|--0-0-0-0-0-0-0-0-6-6-6-6-6-6-6-6-|


  S S S S S S S S S S S S S S S S    S S S S S S S S S S S S S S S S  
----------------------------------|----------------------------------|
----------------------------------|----------------------------------|
----------------------------------|----------------------------------|
--9-9-9-9-9-9-9-9-----------------|----------------------------------|
--7-7-7-7-7-7-7-7-8-8-8-8-8-8-8-8-|--2-2-2-2-2-2-2-2-8-8-8-8-8-8-8-8-|
------------------6-6-6-6-6-6-6-6-|--0-0-0-0-0-0-0-0-6-6-6-6-6-6-6-6-|


  S S S S S S S S  S  S  S  S  S  S  S  S    S S S S S S S S S S S S S S S S  
------------------------------------------|----------------------------------|
------------------------------------------|----------------------------------|
--9-9-9-9-9-9-9-9-10-10-10-10-10-10-10-10-|----------------------------------|
--9-9-9-9-9-9-9-9-10-10-10-10-10-10-10-10-|----------------------------------|
--7-7-7-7-7-7-7-7--8--8--8--8--8--8--8--8-|--2-2-2-2-2-2-2-2-8-8-8-8-8-8-8-8-|
------------------------------------------|--0-0-0-0-0-0-0-0-6-6-6-6-6-6-6-6-|


  S S S S S S S S S S S S S S S S    S S S S S S S S S S S S S S S S  
----------------------------------|----------------------------------|
----------------------------------|----------------------------------|
----------------------------------|----------------------------------|
--9-9-9-9-9-9-9-9-----------------|----------------------------------|
--7-7-7-7-7-7-7-7-8-8-8-8-8-8-8-8-|--2-2-2-2-2-2-2-2-8-8-8-8-8-8-8-8-|
------------------6-6-6-6-6-6-6-6-|--0-0-0-0-0-0-0-0-6-6-6-6-6-6-6-6-|


  S S S S S S S S  S  S  S  S  S  S  S  S    W                 
------------------------------------------|-------------------|
------------------------------------------|-------------------|
--9-9-9-9-9-9-9-9-10-10-10-10-10-10-10-10-|-------------------|
--9-9-9-9-9-9-9-9-10-10-10-10-10-10-10-10-|--2----------------|
--7-7-7-7-7-7-7-7--8--8--8--8--8--8--8--8-|--2----------------|
------------------------------------------|--0----------------|


  W                   W                   W                                     
-------------------|-------------------|-------------------|-------------------|
-------------------|-------------------|-------------------|-------------------|
-------------------|-------------------|-------------------|-------------------|
--L----------------|--L----------------|--L----------------|-------------------|
--L----------------|--L----------------|--L----------------|-------------------|
--L----------------|--L----------------|--L----------------|-------------------|


                                           Q     Q     H         
-------------------|-------------------|------------------------|
-------------------|-------------------|------------------------|
-------------------|-------------------|------------------------|
-------------------|-------------------|--14----14----15--------|
-------------------|-------------------|--14----14----15--------|
-------------------|-------------------|--12----12----13--------|


  H        Q.     E     Q    Q    H           H        Q.     E   
---------------------|---------------------|---------------------|
---------------------|---------------------|---------------------|
---------------------|---------------------|---------------------|
--2--------3------2--|--2----2----3--------|--2--------3------2--|
--2--------3------2--|--2----2----3--------|--2--------3------2--|
--0--------1------0--|--0----0----1--------|--0--------1------0--|


  Q    Q    H           H        Q.     E     Q    Q    H         
---------------------|---------------------|---------------------|
---------------------|---------------------|---------------------|
---------------------|---------------------|---------------------|
--2----2----3--------|--2--------3------2--|--2----2----3--------|
--2----2----3--------|--2--------3------2--|--2----2----3--------|
--0----0----1--------|--0--------1------0--|--0----0----1--------|


  H        Q.     E     Q    Q    H           H        Q.     E   
---------------------|---------------------|---------------------|
---------------------|---------------------|---------------------|
---------------------|---------------------|---------------------|
--2--------3------2--|--2----2----3--------|--2--------3------2--|
--2--------3------2--|--2----2----3--------|--2--------3------2--|
--0--------1------0--|--0----0----1--------|--0--------1------0--|


  Q    Q    H           H        Q.     E     Q    Q    H         
---------------------|---------------------|---------------------|
---------------------|---------------------|---------------------|
---------------------|---------------------|---------------------|
--2----2----3--------|--2--------3------2--|--2----2----3--------|
--2----2----3--------|--2--------3------2--|--2----2----3--------|
--0----0----1--------|--0--------1------0--|--0----0----1--------|


  H        Q.     E     Q    Q    H           H        Q.     E   
---------------------|---------------------|---------------------|
---------------------|---------------------|---------------------|
---------------------|---------------------|---------------------|
--2--------3------2--|--2----2----3--------|--2--------3------2--|
--2--------3------2--|--2----2----3--------|--2--------3------2--|
--0--------1------0--|--0----0----1--------|--0--------1------0--|


  Q    Q    H           H        Q.     E     Q    Q    H         
---------------------|---------------------|---------------------|
---------------------|---------------------|---------------------|
---------------------|---------------------|---------------------|
--2----2----3--------|--2--------3------2--|--2----2----3--------|
--2----2----3--------|--2--------3------2--|--2----2----3--------|
--0----0----1--------|--0--------1------0--|--0----0----1--------|


  H        Q.     E     Q    Q    H           H        Q.     E   
---------------------|---------------------|---------------------|
---------------------|---------------------|---------------------|
---------------------|---------------------|---------------------|
--2--------3------2--|--2----2----3--------|--2--------3------2--|
--2--------3------2--|--2----2----3--------|--2--------3------2--|
--0--------1------0--|--0----0----1--------|--0--------1------0--|


  Q    Q    H           H        Q.     E     Q    Q    H         
---------------------|---------------------|---------------------|
---------------------|---------------------|---------------------|
---------------------|---------------------|---------------------|
--2----2----3--------|--2--------3------2--|--2----2----3--------|
--2----2----3--------|--2--------3------2--|--2----2----3--------|
--0----0----1--------|--0--------1------0--|--0----0----1--------|


  H        Q.     E     Q    Q    H           H        Q.     E    
---------------------|---------------------|----------------------|
---------------------|---------------------|----------------------|
---------------------|---------------------|----------------------|
--2--------3------2--|--2----2----3--------|--2--------3----------|
--2--------3------2--|--2----2----3--------|--2--------3----------|
--0--------1------0--|--0----0----1--------|--0--------1------8\--|


    T   T   T    T   T   T    T    T   T    T    T   T    T    T   T    T    T  
----------------------------------------------------------------------(15)-(13)-
--------------------------------------------------------(11)-(10)-(8)-----------
------------------------------------------(11)-(10)-(8)-------------------------
---------------(10)-(9)-(7)-(12)-(11)-(9)---------------------------------------
--------------------------------------------------------------------------------
--(10)-(9)-(7)------------------------------------------------------------------


   Q.      S  S  Q.      S  S     Q      S  S  E      H          
--12------12-10---------10-12-|--12b----12-10-------------------|
----------------12------------|---------------12--12g13~--------|
------------------------------|---------------------------------|
------------------------------|---------------------------------|
------------------------------|---------------------------------|
------------------------------|---------------------------------|


   S  S  S  S  S S S S Q     E   S S    S S S S S S S S E  S  E   E.   
-------------------------------------|--------------------------------|
--13-12-10---------------------------|--------------------------------|
-----------12-10-9-7-9-9b----9b--7---|----------7-9-L-7---------------|
-----------------------------------9-|--L-9-7-9---------9--L-10\--L---|
-------------------------------------|--------------------------------|
-------------------------------------|--------------------------------|


   3                                               3  
   E   T  T  T  E    S   E   S  S  S  S  E   S   S X  
--12--12-12----15-------14-----------13-15--17s-15-L-|
--12--12-12--L-----(17)-----13-13-13-----------------|
-----------------------------------------------------|
-----------------------------------------------------|
-----------------------------------------------------|
-----------------------------------------------------|


   3                    |---3---|               3  
   E   T  T  T  E   E   T   T   T  Q      E  E  X  
---------------12--14--14h-15p-14-----------------|
--12--12-12--L--------------------12~----13--L--L-|
--------------------------------------------------|
--------------------------------------------------|
--------------------------------------------------|
--------------------------------------------------|


   T   T   S  T   T   S  T   T   S  T   T   S  E   E  S S S S  
--------------------------------------------------------------|
--12h-13p-12-10h-12p-10---------------------------------------|
------------------------12h-14p-12-11h-12p-11-12b--L--9-7-9-9-|
--------------------------------------------------------------|
--------------------------------------------------------------|
--------------------------------------------------------------|


  S S S S S S S S S S S  E.   E   
---------------------------------|
---------------------------------|
--9-7-------7-9-7----------------|
------9-7-9-------9-7-9-10~---L--|
---------------------------------|
---------------------------------|


   S. T  S  S   S  S  S  S  S. T  S  S  E   E    
--12-12-12-16s-14-12-13--L-13-13-13-13-16--16~--|
---------------------------13-13-13-13----------|
------------------------------------------------|
------------------------------------------------|
------------------------------------------------|
------------------------------------------------|


   S  S  S  S  S  E    S  E   S  E.   E   
--12--L--L----12-14s--16-----------------|
-----------12------------13--12-13~---L--|
-----------------------------------------|
-----------------------------------------|
-----------------------------------------|
-----------------------------------------|


   S  S  S  Q     S  S  S  S  Q     S        S  S  S  E    S  E   S  Q     E.   
--19-17--L----------20-18-------------|--17g19-17------------------------------|
--------20-17~----L-------21-18~----L-|-----------20-17~--15-17----------------|
--------------------------------------|--------------------------16-17~----L---|
--------------------------------------|----------------------------------------|
--------------------------------------|----------------------------------------|
--------------------------------------|----------------------------------------|


   S  S  S  S   S  S  S  S  S  S  S  Q     S  
---------------------------------------------|
--17-15-17-17~--L--L--L--L-17-15-17-17b----L-|
---------------------------------------------|
---------------------------------------------|
---------------------------------------------|
---------------------------------------------|


   S  S  S  Q    S  S  S  S  Q      S  
--------------------------------------|
--17-15-------------------------------|
--------16-16----L-16-14-16-16b----16-|
--------------------------------------|
--------------------------------------|
--------------------------------------|


   T  T  T  T  T  T  S  T  T  T  T  T  T  T  T  T  T  T  T  T  T  T  T  T  T  T 
--------------------------------------------------------------------------------
--------------------------------------------------------------------------------
--14-16-14-16-14-16-------------------------------------------------------------
--------------------16-14-16-14-16-14-16-14-16-------------------------14-16-14-
-----------------------------------------------13-15-13-15-13-15-13-15----------
--------------------------------------------------------------------------------


   T  T  T  T  T  T  T  T  T  T  T  T  T  T T T T T T  T  T  T  T  T  T  T  T  T
--------------------------------------------5-6-7-8-9-10-11-12-13-14-15-16-17-18
--------------------------15-17-15-17-15-17-------------------------------------
--16-17-16-17-16-17-16-17-------------------------------------------------------
--------------------------------------------------------------------------------
--------------------------------------------------------------------------------
--------------------------------------------------------------------------------


   Here Euronymous uses a powerful tremolo pick                   
   Q                                            Q       H         
--22b------------------------------------------26br----25--------|
-----------------------------------------------------------------|
-----------------------------------------------------------------|
-----------------------------------------------------------------|
-----------------------------------------------------------------|
-----------------------------------------------------------------|


  Q    Q    H           H        Q.     E     Q    Q    H         
---------------------|---------------------|---------------------|
---------------------|---------------------|---------------------|
---------------------|---------------------|---------------------|
--2----2----3--------|--2--------3------2--|--2----2----3--------|
--2----2----3--------|--2--------3------2--|--2----2----3--------|
--0----0----1--------|--0--------1------0--|--0----0----1--------|


  H        Q.     E     Q    Q    H           H        Q.     E   
---------------------|---------------------|---------------------|
---------------------|---------------------|---------------------|
---------------------|---------------------|---------------------|
--2--------3------2--|--2----2----3--------|--2--------3------2--|
--2--------3------2--|--2----2----3--------|--2--------3------2--|
--0--------1------0--|--0----0----1--------|--0--------1------0--|


  Q    Q    H           H        Q.     E     Q    Q    H         
---------------------|---------------------|---------------------|
---------------------|---------------------|---------------------|
---------------------|---------------------|---------------------|
--2----2----3--------|--2--------3------2--|--2----2----3--------|
--2----2----3--------|--2--------3------2--|--2----2----3--------|
--0----0----1--------|--0--------1------0--|--0----0----1--------|


  H        Q.     E     Q    Q    H           H        Q.     E   
---------------------|---------------------|---------------------|
---------------------|---------------------|---------------------|
---------------------|---------------------|---------------------|
--2--------3------2--|--2----2----3--------|--2--------3------2--|
--2--------3------2--|--2----2----3--------|--2--------3------2--|
--0--------1------0--|--0----0----1--------|--0--------1------0--|


  Q    Q    H           H        Q.     E     Q    Q    H         
---------------------|---------------------|---------------------|
---------------------|---------------------|---------------------|
---------------------|---------------------|---------------------|
--2----2----3--------|--2--------3------2--|--2----2----3--------|
--2----2----3--------|--2--------3------2--|--2----2----3--------|
--0----0----1--------|--0--------1------0--|--0----0----1--------|


  S S S S S S S S S S S S S S S S    S S S S S S S S S S S S S S S S  
----------------------------------|----------------------------------|
----------------------------------|----------------------------------|
----------------------------------|----------------------------------|
----------------------------------|--9-9-9-9-9-9-9-9-----------------|
--2-2-2-2-2-2-2-2-8-8-8-8-8-8-8-8-|--7-7-7-7-7-7-7-7-8-8-8-8-8-8-8-8-|
--0-0-0-0-0-0-0-0-6-6-6-6-6-6-6-6-|------------------6-6-6-6-6-6-6-6-|


  S S S S S S S S S S S S S S S S    S S S S S S S S  S  S  S S S S  S  S  
----------------------------------|---------------------------------------|
----------------------------------|---------------------------------------|
----------------------------------|------------------10-10-10-9-9-9-10-10-|
----------------------------------|--9-9-9-9-9-9-9-9-10-10-10-9-9-9-10-10-|
--2-2-2-2-2-2-2-2-8-8-8-8-8-8-8-8-|--7-7-7-7-7-7-7-7--8--8--8-7-7-7--8--8-|
--0-0-0-0-0-0-0-0-6-6-6-6-6-6-6-6-|---------------------------------------|


  S S S S S S S S S S S S S S S S    S S S S S S S S S S S S S S S S  
----------------------------------|----------------------------------|
----------------------------------|----------------------------------|
----------------------------------|----------------------------------|
----------------------------------|--9-9-9-9-9-9-9-9-----------------|
--2-2-2-2-2-2-2-2-8-8-8-8-8-8-8-8-|--7-7-7-7-7-7-7-7-8-8-8-8-8-8-8-8-|
--0-0-0-0-0-0-0-0-6-6-6-6-6-6-6-6-|------------------6-6-6-6-6-6-6-6-|


  S S S S S S S S S S S S S S S S    S S S S S S S S  S  S  S S S S  S  S  
----------------------------------|---------------------------------------|
----------------------------------|---------------------------------------|
----------------------------------|------------------10-10-10-9-9-9-10-10-|
----------------------------------|--9-9-9-9-9-9-9-9-10-10-10-9-9-9-10-10-|
--2-2-2-2-2-2-2-2-8-8-8-8-8-8-8-8-|--7-7-7-7-7-7-7-7--8--8--8-7-7-7--8--8-|
--0-0-0-0-0-0-0-0-6-6-6-6-6-6-6-6-|---------------------------------------|


  S S S S S S S S S S S S S S S S    S S S S S S S S S S S S S S S S  
----------------------------------|----------------------------------|
----------------------------------|----------------------------------|
----------------------------------|----------------------------------|
----------------------------------|--9-9-9-9-9-9-9-9-----------------|
--2-2-2-2-2-2-2-2-8-8-8-8-8-8-8-8-|--7-7-7-7-7-7-7-7-8-8-8-8-8-8-8-8-|
--0-0-0-0-0-0-0-0-6-6-6-6-6-6-6-6-|------------------6-6-6-6-6-6-6-6-|


  S S S S S S S S S S S S S S S S    S S S S S S S S  S  S  S S S S  S  S  
----------------------------------|---------------------------------------|
----------------------------------|---------------------------------------|
----------------------------------|------------------10-10-10-9-9-9-10-10-|
----------------------------------|--9-9-9-9-9-9-9-9-10-10-10-9-9-9-10-10-|
--2-2-2-2-2-2-2-2-8-8-8-8-8-8-8-8-|--7-7-7-7-7-7-7-7--8--8--8-7-7-7--8--8-|
--0-0-0-0-0-0-0-0-6-6-6-6-6-6-6-6-|---------------------------------------|


  S S S S S S S S S S S S S S S S    S S S S S S S S S S S S S S S S  
----------------------------------|----------------------------------|
----------------------------------|----------------------------------|
----------------------------------|----------------------------------|
----------------------------------|----------9-9---------------------|
--------------------------8-8-----|--7-7-7-7-----7-7---------7-7-----|
--0-0-0-0-7-7-0-0-6-6-6-6-----6-6-|------------------6-6-6-6-----6-6-|


  S S S S S S S S S S S S S S S S    S S S S S S S S  S  S  S S S S  S  S  
----------------------------------|---------------------------------------|
----------------------------------|---------------------------------------|
----------------------------------|------------------10-10-10-9-9-9-10-10-|
----------------------------------|----------9-9-----10-10-10-9-9-9-10-10-|
--------------------------8-8-----|--7-7-7-7-----7-7--8--8--8-7-7-7--8--8-|
--0-0-0-0-7-7-0-0-6-6-6-6-----6-6-|---------------------------------------|


  W                  
-------------------||
-------------------||
-------------------||
--2----------------||
--2----------------||
--0----------------||




Duration Legend
---------------
W - whole
H - half
Q - quarter
E - 8th
S - 16th
T - 32nd
X - 64th
. - note dotted
|-n-|  - n-tuplets


Tablature Legend
----------------
L - tied note
x - dead note
g - grace note
(n) - ghost note
> - accentuded note
NH - natural harmonic
AH - artificial harmonic
TH - tapped harmonic
SH - semi harmonic
PH - pitch harmonic
h - hammer on
p - pull off
b - bend
br - bendRelease
pb - preBend
pbr - preBendRelease
brb - bendReleaseBend
\n/ - tremolo bar dip
\n - tremolo bar dive
-/n - tremolo bar Release up
/n\ - tremolo bar inverted dip
/n - tremolo bar return
-\n - tremolo bar Release down
S - shift slide
s - legato slide
/ -  slide into from below or out of upwards
\ -  slide into from above or out of downwards
~ - vibrato
W - wide vibrato
tr - trill
TP - tremolo picking
T - tapping
S - slap
P - pop
< - fade in
^ - brush up
v - brush down
Tap to rate this tab
 
# A B C D E F G H I J K L M N O P Q R S T U V W X Y Z