Song name
# A B C D E F G H I J K L M N O P Q R S T U V W X Y Z

Mc5 - Looking At You tab

I couldn't believe there were so few tabs of this legendary band, so here's a simple tab 
"Looking at You" that took me longer to type out then to actually make.


Main Verse: This is pretty much played the whole song...
E|-----------------------------------------------------------------|
B|-----8--8----6--6------------------------------------------------|
D|-----9--9----7--7------------------------------------------------|
G|-----9--9----7--7------------------------------------------------|
A|-----7--7----5--5------------------------------------------------|
E|-----------------------------------------------------------------|

Solo 1:
E|--------------------------------0--2--3----5-7-9-10-12-14-15-17-19-21--|
B|-------------------------0-1-3-----------------------------------------|
D|--------------------0-3------------------------------------------------|
G|--------------0-2-4----------------------------------------------------|
A|-------0-2-3-----------------------------------------------------------|
E|-0-2-3-----------------------------------------------------------------|

E|-21-b-x-5--s--19--s--17--s--15--s--14--s--12--12-------------------------|
B|--------------------------------------------------15b-15b-12-------------|
D|------------------------------------------------------------14-12-14-14b-|
G|-------------------------------------------------------------------------|
A|-------------------------------------------------------------------------|
E|-------------------------------------------------------------------------|

E|-----12---15-15---12----12--15-15---12----12----15-15----15b-x4---17b-x-3-|
B|-12------------------15----------------------15---------------------------|
D|--------------------------------------------------------------------------|
G|--------------------------------------------------------------------------|
A|--------------------------------------------------------------------------|
E|--------------------------------------------------------------------------|
Tap to rate this tab
# A B C D E F G H I J K L M N O P Q R S T U V W X Y Z